  0
SECTION
  2
HEADER
  9
$ACADVER
  1
AC1009
  9
$DWGCODEPAGE
  3
ansi_1252
  9
$INSBASE
 10
0.0
 20
0.0
 30
0.0
  9
$EXTMIN
 10
-94.034
 20
-124.2491
 30
0.0
  9
$EXTMAX
 10
94.0319
 20
122.4186
 30
0.0
  9
$LIMMIN
 10
0.0
 20
0.0
  9
$LIMMAX
 10
12.0
 20
9.0
  9
$ORTHOMODE
 70
     0
  9
$REGENMODE
 70
     1
  9
$FILLMODE
 70
     1
  9
$QTEXTMODE
 70
     0
  9
$MIRRTEXT
 70
     1
  9
$DRAGMODE
 70
     2
  9
$LTSCALE
 40
1.0
  9
$OSMODE
 70
    37
  9
$ATTMODE
 70
     1
  9
$TEXTSIZE
 40
0.2
  9
$TRACEWID
 40
0.05
  9
$TEXTSTYLE
  7
STANDARD
  9
$CLAYER
  8
0
  9
$CELTYPE
  6
BYLAYER
  9
$CECOLOR
 62
   256
  9
$DIMSCALE
 40
1.0
  9
$DIMASZ
 40
0.18
  9
$DIMEXO
 40
0.0625
  9
$DIMDLI
 40
0.38
  9
$DIMRND
 40
0.0
  9
$DIMDLE
 40
0.0
  9
$DIMEXE
 40
0.18
  9
$DIMTP
 40
0.0
  9
$DIMTM
 40
0.0
  9
$DIMTXT
 40
0.18
  9
$DIMCEN
 40
0.09
  9
$DIMTSZ
 40
0.0
  9
$DIMTOL
 70
     0
  9
$DIMLIM
 70
     0
  9
$DIMTIH
 70
     1
  9
$DIMTOH
 70
     1
  9
$DIMSE1
 70
     0
  9
$DIMSE2
 70
     0
  9
$DIMTAD
 70
     0
  9
$DIMZIN
 70
     0
  9
$DIMBLK
  1

  9
$DIMASO
 70
     1
  9
$DIMSHO
 70
     1
  9
$DIMPOST
  1

  9
$DIMAPOST
  1

  9
$DIMALT
 70
     0
  9
$DIMALTD
 70
     2
  9
$DIMALTF
 40
25.4
  9
$DIMLFAC
 40
1.0
  9
$DIMTOFL
 70
     0
  9
$DIMTVP
 40
0.0
  9
$DIMTIX
 70
     0
  9
$DIMSOXD
 70
     0
  9
$DIMSAH
 70
     0
  9
$DIMBLK1
  1

  9
$DIMBLK2
  1

  9
$DIMSTYLE
  2
STANDARD
  9
$DIMCLRD
 70
     0
  9
$DIMCLRE
 70
     0
  9
$DIMCLRT
 70
     0
  9
$DIMTFAC
 40
1.0
  9
$DIMGAP
 40
0.09
  9
$LUNITS
 70
     2
  9
$LUPREC
 70
     4
  9
$SKETCHINC
 40
0.1
  9
$FILLETRAD
 40
0.5
  9
$AUNITS
 70
     0
  9
$AUPREC
 70
     0
  9
$MENU
  1
.
  9
$ELEVATION
 40
0.0
  9
$PELEVATION
 40
0.0
  9
$THICKNESS
 40
0.0
  9
$LIMCHECK
 70
     0
  9
$CHAMFERA
 40
0.5
  9
$CHAMFERB
 40
0.5
  9
$SKPOLY
 70
     0
  9
$TDCREATE
 40
2456619.604224167
  9
$TDUPDATE
 40
2456619.604224178
  9
$TDINDWG
 40
0.0000000116
  9
$TDUSRTIMER
 40
0.0000000116
  9
$USRTIMER
 70
     1
  9
$ANGBASE
 50
0.0
  9
$ANGDIR
 70
     0
  9
$PDMODE
 70
     0
  9
$PDSIZE
 40
0.0
  9
$PLINEWID
 40
0.0
  9
$COORDS
 70
     1
  9
$SPLFRAME
 70
     0
  9
$SPLINETYPE
 70
     6
  9
$SPLINESEGS
 70
     8
  9
$ATTDIA
 70
     0
  9
$ATTREQ
 70
     1
  9
$HANDLING
 70
     1
  9
$HANDSEED
  5
DCE
  9
$SURFTAB1
 70
     6
  9
$SURFTAB2
 70
     6
  9
$SURFTYPE
 70
     6
  9
$SURFU
 70
     6
  9
$SURFV
 70
     6
  9
$UCSNAME
  2

  9
$UCSORG
 10
0.0
 20
0.0
 30
0.0
  9
$UCSXDIR
 10
1.0
 20
0.0
 30
0.0
  9
$UCSYDIR
 10
0.0
 20
1.0
 30
0.0
  9
$PUCSNAME
  2

  9
$PUCSORG
 10
0.0
 20
0.0
 30
0.0
  9
$PUCSXDIR
 10
1.0
 20
0.0
 30
0.0
  9
$PUCSYDIR
 10
0.0
 20
1.0
 30
0.0
  9
$USERI1
 70
     0
  9
$USERI2
 70
     0
  9
$USERI3
 70
     0
  9
$USERI4
 70
     0
  9
$USERI5
 70
     0
  9
$USERR1
 40
0.0
  9
$USERR2
 40
0.0
  9
$USERR3
 40
0.0
  9
$USERR4
 40
0.0
  9
$USERR5
 40
0.0
  9
$WORLDVIEW
 70
     1
  9
$SHADEDGE
 70
     3
  9
$SHADEDIF
 70
    70
  9
$TILEMODE
 70
     1
  9
$MAXACTVP
 70
    64
  9
$PLIMCHECK
 70
     0
  9
$PEXTMIN
 10
1.000000000000000E+20
 20
1.000000000000000E+20
 30
1.000000000000000E+20
  9
$PEXTMAX
 10
-1.000000000000000E+20
 20
-1.000000000000000E+20
 30
-1.000000000000000E+20
  9
$PLIMMIN
 10
0.0
 20
0.0
  9
$PLIMMAX
 10
12.0
 20
9.0
  9
$UNITMODE
 70
     0
  9
$VISRETAIN
 70
     1
  9
$PLINEGEN
 70
     0
  9
$PSLTSCALE
 70
     1
  0
ENDSEC
  0
SECTION
  2
TABLES
  0
TABLE
  2
VPORT
 70
     1
  0
VPORT
  2
*ACTIVE
 70
     0
 10
0.0
 20
0.0
 11
1.0
 21
1.0
 12
10.42990654205607
 22
4.5
 13
0.0
 23
0.0
 14
0.5
 24
0.5
 15
0.5
 25
0.5
 16
0.0
 26
0.0
 36
1.0
 17
0.0
 27
0.0
 37
0.0
 40
9.0
 41
1.972972972850329
 42
50.0
 43
0.0
 44
0.0
 50
0.0
 51
0.0
 71
     0
 72
   100
 73
     1
 74
     3
 75
     0
 76
     0
 77
     0
 78
     0
  0
ENDTAB
  0
TABLE
  2
LTYPE
 70
     1
  0
LTYPE
  2
CONTINUOUS
 70
     0
  3
Solid line
 72
    65
 73
     0
 40
0.0
  0
ENDTAB
  0
TABLE
  2
LAYER
 70
     2
  0
LAYER
  2
0
 70
     0
 62
     7
  6
CONTINUOUS
  0
LAYER
  2
LAYER_1
 70
     0
 62
     7
  6
CONTINUOUS
  0
ENDTAB
  0
TABLE
  2
STYLE
 70
     1
  0
STYLE
  2
STANDARD
 70
     0
 40
0.0
 41
1.0
 50
0.0
 71
     0
 42
0.2
  3
txt
  4

  0
ENDTAB
  0
TABLE
  2
VIEW
 70
     0
  0
ENDTAB
  0
TABLE
  2
UCS
 70
     0
  0
ENDTAB
  0
TABLE
  2
APPID
 70
     2
  0
APPID
  2
ACAD
 70
     0
  0
APPID
  2
ODA
 70
     0
  0
ENDTAB
  0
TABLE
  2
DIMSTYLE
 70
     1
  0
DIMSTYLE
  2
STANDARD
 70
     0
  3

  4

  5

  6

  7

 40
1.0
 41
0.18
 42
0.0625
 43
0.38
 44
0.18
 45
0.0
 46
0.0
 47
0.0
 48
0.0
140
0.18
141
0.09
142
0.0
143
25.4
144
1.0
145
0.0
146
1.0
147
0.09
 71
     0
 72
     0
 73
     1
 74
     1
 75
     0
 76
     0
 77
     0
 78
     0
170
     0
171
     2
172
     0
173
     0
174
     0
175
     0
176
     0
177
     0
178
     0
  0
ENDTAB
  0
ENDSEC
  0
SECTION
  2
BLOCKS
  0
BLOCK
  8
0
  2
$MODEL_SPACE
 70
     0
 10
0.0
 20
0.0
 30
0.0
  3
$MODEL_SPACE
  1

  0
ENDBLK
  5
21
  8
0
  0
BLOCK
 67
     1
  8
0
  2
$PAPER_SPACE
 70
     0
 10
0.0
 20
0.0
 30
0.0
  3
$PAPER_SPACE
  1

  0
ENDBLK
  5
1D
 67
     1
  8
0
  0
ENDSEC
  0
SECTION
  2
ENTITIES
  0
POLYLINE
  5
41
  8
LAYER_1
 62
   250
 66
     1
 10
0.0
 20
0.0
 30
0.0
 70
     1
  0
VERTEX
  5
8C
  8
LAYER_1
 62
   250
 10
-43.1907
 20
50.5902
 30
0.0
  0
VERTEX
  5
8D
  8
LAYER_1
 62
   250
 10
-43.3229
 20
49.7725
 30
0.0
  0
VERTEX
  5
8E
  8
LAYER_1
 62
   250
 10
-43.3533
 20
49.7806
 30
0.0
  0
VERTEX
  5
8F
  8
LAYER_1
 62
   250
 10
-43.4637
 20
49.2636
 30
0.0
  0
VERTEX
  5
90
  8
LAYER_1
 62
   250
 10
-43.579
 20
48.7488
 30
0.0
  0
VERTEX
  5
91
  8
LAYER_1
 62
   250
 10
-43.6994
 20
48.2363
 30
0.0
  0
VERTEX
  5
92
  8
LAYER_1
 62
   250
 10
-43.825
 20
47.7265
 30
0.0
  0
VERTEX
  5
93
  8
LAYER_1
 62
   250
 10
-43.9558
 20
47.2195
 30
0.0
  0
VERTEX
  5
94
  8
LAYER_1
 62
   250
 10
-44.0921
 20
46.7154
 30
0.0
  0
VERTEX
  5
95
  8
LAYER_1
 62
   250
 10
-44.2339
 20
46.2145
 30
0.0
  0
VERTEX
  5
96
  8
LAYER_1
 62
   250
 10
-44.3813
 20
45.7169
 30
0.0
  0
VERTEX
  5
97
  8
LAYER_1
 62
   250
 10
-45.8276
 20
41.4194
 30
0.0
  0
VERTEX
  5
98
  8
LAYER_1
 62
   250
 10
-47.4895
 20
37.2791
 30
0.0
  0
VERTEX
  5
99
  8
LAYER_1
 62
   250
 10
-49.3204
 20
33.3274
 30
0.0
  0
VERTEX
  5
9A
  8
LAYER_1
 62
   250
 10
-51.2735
 20
29.5955
 30
0.0
  0
VERTEX
  5
9B
  8
LAYER_1
 62
   250
 10
-53.3022
 20
26.115
 30
0.0
  0
VERTEX
  5
9C
  8
LAYER_1
 62
   250
 10
-55.3596
 20
22.9171
 30
0.0
  0
VERTEX
  5
9D
  8
LAYER_1
 62
   250
 10
-57.3993
 20
20.0332
 30
0.0
  0
VERTEX
  5
9E
  8
LAYER_1
 62
   250
 10
-59.3743
 20
17.4947
 30
0.0
  0
VERTEX
  5
9F
  8
LAYER_1
 62
   250
 10
-60.3624
 20
16.1612
 30
0.0
  0
VERTEX
  5
A0
  8
LAYER_1
 62
   250
 10
-61.1876
 20
14.8062
 30
0.0
  0
VERTEX
  5
A1
  8
LAYER_1
 62
   250
 10
-61.8622
 20
13.4613
 30
0.0
  0
VERTEX
  5
A2
  8
LAYER_1
 62
   250
 10
-62.3982
 20
12.1583
 30
0.0
  0
VERTEX
  5
A3
  8
LAYER_1
 62
   250
 10
-62.808
 20
10.9288
 30
0.0
  0
VERTEX
  5
A4
  8
LAYER_1
 62
   250
 10
-63.1037
 20
9.8046
 30
0.0
  0
VERTEX
  5
A5
  8
LAYER_1
 62
   250
 10
-63.2974
 20
8.8171
 30
0.0
  0
VERTEX
  5
A6
  8
LAYER_1
 62
   250
 10
-63.4013
 20
7.9983
 30
0.0
  0
VERTEX
  5
A7
  8
LAYER_1
 62
   250
 10
-63.2974
 20
7.1793
 30
0.0
  0
VERTEX
  5
A8
  8
LAYER_1
 62
   250
 10
-63.1037
 20
6.1919
 30
0.0
  0
VERTEX
  5
A9
  8
LAYER_1
 62
   250
 10
-62.808
 20
5.0676
 30
0.0
  0
VERTEX
  5
AA
  8
LAYER_1
 62
   250
 10
-62.3982
 20
3.8381
 30
0.0
  0
VERTEX
  5
AB
  8
LAYER_1
 62
   250
 10
-61.8622
 20
2.5352
 30
0.0
  0
VERTEX
  5
AC
  8
LAYER_1
 62
   250
 10
-61.1876
 20
1.1904
 30
0.0
  0
VERTEX
  5
AD
  8
LAYER_1
 62
   250
 10
-60.3624
 20
-0.1646
 30
0.0
  0
VERTEX
  5
AE
  8
LAYER_1
 62
   250
 10
-59.3743
 20
-1.4981
 30
0.0
  0
VERTEX
  5
AF
  8
LAYER_1
 62
   250
 10
-57.3993
 20
-4.0368
 30
0.0
  0
VERTEX
  5
B0
  8
LAYER_1
 62
   250
 10
-55.3596
 20
-6.9208
 30
0.0
  0
VERTEX
  5
B1
  8
LAYER_1
 62
   250
 10
-53.3022
 20
-10.1187
 30
0.0
  0
VERTEX
  5
B2
  8
LAYER_1
 62
   250
 10
-51.2735
 20
-13.5992
 30
0.0
  0
VERTEX
  5
B3
  8
LAYER_1
 62
   250
 10
-49.3204
 20
-17.331
 30
0.0
  0
VERTEX
  5
B4
  8
LAYER_1
 62
   250
 10
-47.4895
 20
-21.2827
 30
0.0
  0
VERTEX
  5
B5
  8
LAYER_1
 62
   250
 10
-45.8276
 20
-25.4229
 30
0.0
  0
VERTEX
  5
B6
  8
LAYER_1
 62
   250
 10
-44.3813
 20
-29.7204
 30
0.0
  0
VERTEX
  5
B7
  8
LAYER_1
 62
   250
 10
-44.2339
 20
-30.218
 30
0.0
  0
VERTEX
  5
B8
  8
LAYER_1
 62
   250
 10
-44.0921
 20
-30.719
 30
0.0
  0
VERTEX
  5
B9
  8
LAYER_1
 62
   250
 10
-43.9558
 20
-31.2231
 30
0.0
  0
VERTEX
  5
BA
  8
LAYER_1
 62
   250
 10
-43.825
 20
-31.7303
 30
0.0
  0
VERTEX
  5
BB
  8
LAYER_1
 62
   250
 10
-43.6994
 20
-32.2402
 30
0.0
  0
VERTEX
  5
BC
  8
LAYER_1
 62
   250
 10
-43.579
 20
-32.7526
 30
0.0
  0
VERTEX
  5
BD
  8
LAYER_1
 62
   250
 10
-43.4637
 20
-33.2675
 30
0.0
  0
VERTEX
  5
BE
  8
LAYER_1
 62
   250
 10
-43.3533
 20
-33.7844
 30
0.0
  0
VERTEX
  5
BF
  8
LAYER_1
 62
   250
 10
-43.3229
 20
-33.7759
 30
0.0
  0
VERTEX
  5
C0
  8
LAYER_1
 62
   250
 10
-43.1907
 20
-34.5943
 30
0.0
  0
VERTEX
  5
C1
  8
LAYER_1
 62
   250
 10
-42.8491
 20
-36.309
 30
0.0
  0
VERTEX
  5
C2
  8
LAYER_1
 62
   250
 10
-42.5698
 20
-37.6497
 30
0.0
  0
VERTEX
  5
C3
  8
LAYER_1
 62
   250
 10
-42.3485
 20
-38.7366
 30
0.0
  0
VERTEX
  5
C4
  8
LAYER_1
 62
   250
 10
-42.1808
 20
-39.6896
 30
0.0
  0
VERTEX
  5
C5
  8
LAYER_1
 62
   250
 10
-42.0622
 20
-40.629
 30
0.0
  0
VERTEX
  5
C6
  8
LAYER_1
 62
   250
 10
-41.9885
 20
-41.6747
 30
0.0
  0
VERTEX
  5
C7
  8
LAYER_1
 62
   250
 10
-41.9552
 20
-42.9469
 30
0.0
  0
VERTEX
  5
C8
  8
LAYER_1
 62
   250
 10
-41.958
 20
-44.5656
 30
0.0
  0
VERTEX
  5
C9
  8
LAYER_1
 62
   250
 10
-41.9552
 20
-46.4218
 30
0.0
  0
VERTEX
  5
CA
  8
LAYER_1
 62
   250
 10
-41.9885
 20
-48.3201
 30
0.0
  0
VERTEX
  5
CB
  8
LAYER_1
 62
   250
 10
-42.0622
 20
-50.2511
 30
0.0
  0
VERTEX
  5
CC
  8
LAYER_1
 62
   250
 10
-42.1808
 20
-52.2053
 30
0.0
  0
VERTEX
  5
CD
  8
LAYER_1
 62
   250
 10
-42.3485
 20
-54.1731
 30
0.0
  0
VERTEX
  5
CE
  8
LAYER_1
 62
   250
 10
-42.5698
 20
-56.1452
 30
0.0
  0
VERTEX
  5
CF
  8
LAYER_1
 62
   250
 10
-42.8491
 20
-58.1121
 30
0.0
  0
VERTEX
  5
D0
  8
LAYER_1
 62
   250
 10
-43.1907
 20
-60.0642
 30
0.0
  0
VERTEX
  5
D1
  8
LAYER_1
 62
   250
 10
-43.3229
 20
-60.8823
 30
0.0
  0
VERTEX
  5
D2
  8
LAYER_1
 62
   250
 10
-43.3533
 20
-60.8742
 30
0.0
  0
VERTEX
  5
D3
  8
LAYER_1
 62
   250
 10
-43.4637
 20
-61.3911
 30
0.0
  0
VERTEX
  5
D4
  8
LAYER_1
 62
   250
 10
-43.579
 20
-61.9059
 30
0.0
  0
VERTEX
  5
D5
  8
LAYER_1
 62
   250
 10
-43.6994
 20
-62.4183
 30
0.0
  0
VERTEX
  5
D6
  8
LAYER_1
 62
   250
 10
-43.825
 20
-62.9281
 30
0.0
  0
VERTEX
  5
D7
  8
LAYER_1
 62
   250
 10
-43.9558
 20
-63.4352
 30
0.0
  0
VERTEX
  5
D8
  8
LAYER_1
 62
   250
 10
-44.0921
 20
-63.9393
 30
0.0
  0
VERTEX
  5
D9
  8
LAYER_1
 62
   250
 10
-44.2339
 20
-64.4402
 30
0.0
  0
VERTEX
  5
DA
  8
LAYER_1
 62
   250
 10
-44.3813
 20
-64.9378
 30
0.0
  0
VERTEX
  5
DB
  8
LAYER_1
 62
   250
 10
-45.8276
 20
-69.2353
 30
0.0
  0
VERTEX
  5
DC
  8
LAYER_1
 62
   250
 10
-47.4895
 20
-73.3756
 30
0.0
  0
VERTEX
  5
DD
  8
LAYER_1
 62
   250
 10
-49.3204
 20
-77.3273
 30
0.0
  0
VERTEX
  5
DE
  8
LAYER_1
 62
   250
 10
-51.2735
 20
-81.0591
 30
0.0
  0
VERTEX
  5
DF
  8
LAYER_1
 62
   250
 10
-53.3022
 20
-84.5396
 30
0.0
  0
VERTEX
  5
E0
  8
LAYER_1
 62
   250
 10
-55.3596
 20
-87.7375
 30
0.0
  0
VERTEX
  5
E1
  8
LAYER_1
 62
   250
 10
-57.3993
 20
-90.6214
 30
0.0
  0
VERTEX
  5
E2
  8
LAYER_1
 62
   250
 10
-59.3743
 20
-93.16
 30
0.0
  0
VERTEX
  5
E3
  8
LAYER_1
 62
   250
 10
-60.4602
 20
-94.7674
 30
0.0
  0
VERTEX
  5
E4
  8
LAYER_1
 62
   250
 10
-61.3477
 20
-96.6044
 30
0.0
  0
VERTEX
  5
E5
  8
LAYER_1
 62
   250
 10
-62.0532
 20
-98.5586
 30
0.0
  0
VERTEX
  5
E6
  8
LAYER_1
 62
   250
 10
-62.5934
 20
-100.5176
 30
0.0
  0
VERTEX
  5
E7
  8
LAYER_1
 62
   250
 10
-62.9848
 20
-102.3691
 30
0.0
  0
VERTEX
  5
E8
  8
LAYER_1
 62
   250
 10
-63.2439
 20
-104.0008
 30
0.0
  0
VERTEX
  5
E9
  8
LAYER_1
 62
   250
 10
-63.3872
 20
-105.3003
 30
0.0
  0
VERTEX
  5
EA
  8
LAYER_1
 62
   250
 10
-63.4313
 20
-106.1553
 30
0.0
  0
VERTEX
  5
EB
  8
LAYER_1
 62
   250
 10
-72.3788
 20
-106.1553
 30
0.0
  0
VERTEX
  5
EC
  8
LAYER_1
 62
   250
 10
-72.4229
 20
-105.3003
 30
0.0
  0
VERTEX
  5
ED
  8
LAYER_1
 62
   250
 10
-72.5662
 20
-104.0008
 30
0.0
  0
VERTEX
  5
EE
  8
LAYER_1
 62
   250
 10
-72.8253
 20
-102.3691
 30
0.0
  0
VERTEX
  5
EF
  8
LAYER_1
 62
   250
 10
-73.2166
 20
-100.5176
 30
0.0
  0
VERTEX
  5
F0
  8
LAYER_1
 62
   250
 10
-73.7568
 20
-98.5586
 30
0.0
  0
VERTEX
  5
F1
  8
LAYER_1
 62
   250
 10
-74.4624
 20
-96.6044
 30
0.0
  0
VERTEX
  5
F2
  8
LAYER_1
 62
   250
 10
-75.3498
 20
-94.7674
 30
0.0
  0
VERTEX
  5
F3
  8
LAYER_1
 62
   250
 10
-76.4357
 20
-93.16
 30
0.0
  0
VERTEX
  5
F4
  8
LAYER_1
 62
   250
 10
-78.4109
 20
-90.6214
 30
0.0
  0
VERTEX
  5
F5
  8
LAYER_1
 62
   250
 10
-80.4505
 20
-87.7375
 30
0.0
  0
VERTEX
  5
F6
  8
LAYER_1
 62
   250
 10
-82.508
 20
-84.5396
 30
0.0
  0
VERTEX
  5
F7
  8
LAYER_1
 62
   250
 10
-84.5367
 20
-81.0591
 30
0.0
  0
VERTEX
  5
F8
  8
LAYER_1
 62
   250
 10
-86.4898
 20
-77.3273
 30
0.0
  0
VERTEX
  5
F9
  8
LAYER_1
 62
   250
 10
-88.3206
 20
-73.3756
 30
0.0
  0
VERTEX
  5
FA
  8
LAYER_1
 62
   250
 10
-89.9825
 20
-69.2353
 30
0.0
  0
VERTEX
  5
FB
  8
LAYER_1
 62
   250
 10
-91.4288
 20
-64.9378
 30
0.0
  0
VERTEX
  5
FC
  8
LAYER_1
 62
   250
 10
-91.5762
 20
-64.4402
 30
0.0
  0
VERTEX
  5
FD
  8
LAYER_1
 62
   250
 10
-91.718
 20
-63.9393
 30
0.0
  0
VERTEX
  5
FE
  8
LAYER_1
 62
   250
 10
-91.8542
 20
-63.4352
 30
0.0
  0
VERTEX
  5
FF
  8
LAYER_1
 62
   250
 10
-91.9851
 20
-62.9281
 30
0.0
  0
VERTEX
  5
100
  8
LAYER_1
 62
   250
 10
-92.1107
 20
-62.4183
 30
0.0
  0
VERTEX
  5
101
  8
LAYER_1
 62
   250
 10
-92.2311
 20
-61.9059
 30
0.0
  0
VERTEX
  5
102
  8
LAYER_1
 62
   250
 10
-92.3464
 20
-61.3911
 30
0.0
  0
VERTEX
  5
103
  8
LAYER_1
 62
   250
 10
-92.4568
 20
-60.8742
 30
0.0
  0
VERTEX
  5
104
  8
LAYER_1
 62
   250
 10
-92.4871
 20
-60.8823
 30
0.0
  0
VERTEX
  5
105
  8
LAYER_1
 62
   250
 10
-92.6194
 20
-60.0642
 30
0.0
  0
VERTEX
  5
106
  8
LAYER_1
 62
   250
 10
-92.961
 20
-58.1121
 30
0.0
  0
VERTEX
  5
107
  8
LAYER_1
 62
   250
 10
-93.2403
 20
-56.1452
 30
0.0
  0
VERTEX
  5
108
  8
LAYER_1
 62
   250
 10
-93.4616
 20
-54.1731
 30
0.0
  0
VERTEX
  5
109
  8
LAYER_1
 62
   250
 10
-93.6293
 20
-52.2053
 30
0.0
  0
VERTEX
  5
10A
  8
LAYER_1
 62
   250
 10
-93.7478
 20
-50.2511
 30
0.0
  0
VERTEX
  5
10B
  8
LAYER_1
 62
   250
 10
-93.8215
 20
-48.3201
 30
0.0
  0
VERTEX
  5
10C
  8
LAYER_1
 62
   250
 10
-93.8548
 20
-46.4218
 30
0.0
  0
VERTEX
  5
10D
  8
LAYER_1
 62
   250
 10
-93.852
 20
-44.5656
 30
0.0
  0
VERTEX
  5
10E
  8
LAYER_1
 62
   250
 10
-93.8548
 20
-42.9469
 30
0.0
  0
VERTEX
  5
10F
  8
LAYER_1
 62
   250
 10
-93.8215
 20
-41.6747
 30
0.0
  0
VERTEX
  5
110
  8
LAYER_1
 62
   250
 10
-93.7478
 20
-40.629
 30
0.0
  0
VERTEX
  5
111
  8
LAYER_1
 62
   250
 10
-93.6293
 20
-39.6896
 30
0.0
  0
VERTEX
  5
112
  8
LAYER_1
 62
   250
 10
-93.4616
 20
-38.7366
 30
0.0
  0
VERTEX
  5
113
  8
LAYER_1
 62
   250
 10
-93.2403
 20
-37.6497
 30
0.0
  0
VERTEX
  5
114
  8
LAYER_1
 62
   250
 10
-92.961
 20
-36.309
 30
0.0
  0
VERTEX
  5
115
  8
LAYER_1
 62
   250
 10
-92.6194
 20
-34.5943
 30
0.0
  0
VERTEX
  5
116
  8
LAYER_1
 62
   250
 10
-92.4871
 20
-33.7759
 30
0.0
  0
VERTEX
  5
117
  8
LAYER_1
 62
   250
 10
-92.4568
 20
-33.7844
 30
0.0
  0
VERTEX
  5
118
  8
LAYER_1
 62
   250
 10
-92.3464
 20
-33.2675
 30
0.0
  0
VERTEX
  5
119
  8
LAYER_1
 62
   250
 10
-92.2311
 20
-32.7526
 30
0.0
  0
VERTEX
  5
11A
  8
LAYER_1
 62
   250
 10
-92.1107
 20
-32.2402
 30
0.0
  0
VERTEX
  5
11B
  8
LAYER_1
 62
   250
 10
-91.9851
 20
-31.7303
 30
0.0
  0
VERTEX
  5
11C
  8
LAYER_1
 62
   250
 10
-91.8542
 20
-31.2231
 30
0.0
  0
VERTEX
  5
11D
  8
LAYER_1
 62
   250
 10
-91.718
 20
-30.719
 30
0.0
  0
VERTEX
  5
11E
  8
LAYER_1
 62
   250
 10
-91.5762
 20
-30.218
 30
0.0
  0
VERTEX
  5
11F
  8
LAYER_1
 62
   250
 10
-91.4288
 20
-29.7204
 30
0.0
  0
VERTEX
  5
120
  8
LAYER_1
 62
   250
 10
-89.9825
 20
-25.4229
 30
0.0
  0
VERTEX
  5
121
  8
LAYER_1
 62
   250
 10
-88.3206
 20
-21.2827
 30
0.0
  0
VERTEX
  5
122
  8
LAYER_1
 62
   250
 10
-86.4898
 20
-17.331
 30
0.0
  0
VERTEX
  5
123
  8
LAYER_1
 62
   250
 10
-84.5367
 20
-13.5992
 30
0.0
  0
VERTEX
  5
124
  8
LAYER_1
 62
   250
 10
-82.508
 20
-10.1187
 30
0.0
  0
VERTEX
  5
125
  8
LAYER_1
 62
   250
 10
-80.4505
 20
-6.9208
 30
0.0
  0
VERTEX
  5
126
  8
LAYER_1
 62
   250
 10
-78.4109
 20
-4.0368
 30
0.0
  0
VERTEX
  5
127
  8
LAYER_1
 62
   250
 10
-76.4357
 20
-1.4981
 30
0.0
  0
VERTEX
  5
128
  8
LAYER_1
 62
   250
 10
-75.4476
 20
-0.1646
 30
0.0
  0
VERTEX
  5
129
  8
LAYER_1
 62
   250
 10
-74.6225
 20
1.1904
 30
0.0
  0
VERTEX
  5
12A
  8
LAYER_1
 62
   250
 10
-73.948
 20
2.5352
 30
0.0
  0
VERTEX
  5
12B
  8
LAYER_1
 62
   250
 10
-73.4119
 20
3.8381
 30
0.0
  0
VERTEX
  5
12C
  8
LAYER_1
 62
   250
 10
-73.0022
 20
5.0676
 30
0.0
  0
VERTEX
  5
12D
  8
LAYER_1
 62
   250
 10
-72.7066
 20
6.1919
 30
0.0
  0
VERTEX
  5
12E
  8
LAYER_1
 62
   250
 10
-72.5128
 20
7.1793
 30
0.0
  0
VERTEX
  5
12F
  8
LAYER_1
 62
   250
 10
-72.4088
 20
7.9983
 30
0.0
  0
VERTEX
  5
130
  8
LAYER_1
 62
   250
 10
-72.5128
 20
8.8171
 30
0.0
  0
VERTEX
  5
131
  8
LAYER_1
 62
   250
 10
-72.7066
 20
9.8046
 30
0.0
  0
VERTEX
  5
132
  8
LAYER_1
 62
   250
 10
-73.0022
 20
10.9288
 30
0.0
  0
VERTEX
  5
133
  8
LAYER_1
 62
   250
 10
-73.4119
 20
12.1583
 30
0.0
  0
VERTEX
  5
134
  8
LAYER_1
 62
   250
 10
-73.948
 20
13.4613
 30
0.0
  0
VERTEX
  5
135
  8
LAYER_1
 62
   250
 10
-74.6225
 20
14.8062
 30
0.0
  0
VERTEX
  5
136
  8
LAYER_1
 62
   250
 10
-75.4476
 20
16.1612
 30
0.0
  0
VERTEX
  5
137
  8
LAYER_1
 62
   250
 10
-76.4357
 20
17.4947
 30
0.0
  0
VERTEX
  5
138
  8
LAYER_1
 62
   250
 10
-78.4109
 20
20.0332
 30
0.0
  0
VERTEX
  5
139
  8
LAYER_1
 62
   250
 10
-80.4505
 20
22.9171
 30
0.0
  0
VERTEX
  5
13A
  8
LAYER_1
 62
   250
 10
-82.508
 20
26.115
 30
0.0
  0
VERTEX
  5
13B
  8
LAYER_1
 62
   250
 10
-84.5367
 20
29.5955
 30
0.0
  0
VERTEX
  5
13C
  8
LAYER_1
 62
   250
 10
-86.4898
 20
33.3274
 30
0.0
  0
VERTEX
  5
13D
  8
LAYER_1
 62
   250
 10
-88.3206
 20
37.2791
 30
0.0
  0
VERTEX
  5
13E
  8
LAYER_1
 62
   250
 10
-89.9825
 20
41.4194
 30
0.0
  0
VERTEX
  5
13F
  8
LAYER_1
 62
   250
 10
-91.4288
 20
45.7169
 30
0.0
  0
VERTEX
  5
140
  8
LAYER_1
 62
   250
 10
-91.5762
 20
46.2145
 30
0.0
  0
VERTEX
  5
141
  8
LAYER_1
 62
   250
 10
-91.718
 20
46.7154
 30
0.0
  0
VERTEX
  5
142
  8
LAYER_1
 62
   250
 10
-91.8542
 20
47.2195
 30
0.0
  0
VERTEX
  5
143
  8
LAYER_1
 62
   250
 10
-91.9851
 20
47.7265
 30
0.0
  0
VERTEX
  5
144
  8
LAYER_1
 62
   250
 10
-92.1107
 20
48.2363
 30
0.0
  0
VERTEX
  5
145
  8
LAYER_1
 62
   250
 10
-92.2311
 20
48.7488
 30
0.0
  0
VERTEX
  5
146
  8
LAYER_1
 62
   250
 10
-92.3464
 20
49.2636
 30
0.0
  0
VERTEX
  5
147
  8
LAYER_1
 62
   250
 10
-92.4568
 20
49.7806
 30
0.0
  0
VERTEX
  5
148
  8
LAYER_1
 62
   250
 10
-92.4871
 20
49.7725
 30
0.0
  0
VERTEX
  5
149
  8
LAYER_1
 62
   250
 10
-92.6194
 20
50.5902
 30
0.0
  0
VERTEX
  5
14A
  8
LAYER_1
 62
   250
 10
-92.961
 20
52.305
 30
0.0
  0
VERTEX
  5
14B
  8
LAYER_1
 62
   250
 10
-93.2403
 20
53.6458
 30
0.0
  0
VERTEX
  5
14C
  8
LAYER_1
 62
   250
 10
-93.4616
 20
54.7327
 30
0.0
  0
VERTEX
  5
14D
  8
LAYER_1
 62
   250
 10
-93.6293
 20
55.6858
 30
0.0
  0
VERTEX
  5
14E
  8
LAYER_1
 62
   250
 10
-93.7478
 20
56.6252
 30
0.0
  0
VERTEX
  5
14F
  8
LAYER_1
 62
   250
 10
-93.8215
 20
57.671
 30
0.0
  0
VERTEX
  5
150
  8
LAYER_1
 62
   250
 10
-93.8548
 20
58.9431
 30
0.0
  0
VERTEX
  5
151
  8
LAYER_1
 62
   250
 10
-93.852
 20
60.5618
 30
0.0
  0
VERTEX
  5
152
  8
LAYER_1
 62
   250
 10
-93.8548
 20
62.418
 30
0.0
  0
VERTEX
  5
153
  8
LAYER_1
 62
   250
 10
-93.8215
 20
64.3163
 30
0.0
  0
VERTEX
  5
154
  8
LAYER_1
 62
   250
 10
-93.7478
 20
66.2472
 30
0.0
  0
VERTEX
  5
155
  8
LAYER_1
 62
   250
 10
-93.6293
 20
68.2013
 30
0.0
  0
VERTEX
  5
156
  8
LAYER_1
 62
   250
 10
-93.4616
 20
70.1691
 30
0.0
  0
VERTEX
  5
157
  8
LAYER_1
 62
   250
 10
-93.2403
 20
72.1412
 30
0.0
  0
VERTEX
  5
158
  8
LAYER_1
 62
   250
 10
-92.961
 20
74.1081
 30
0.0
  0
VERTEX
  5
159
  8
LAYER_1
 62
   250
 10
-92.6194
 20
76.0604
 30
0.0
  0
VERTEX
  5
15A
  8
LAYER_1
 62
   250
 10
-92.4871
 20
76.8785
 30
0.0
  0
VERTEX
  5
15B
  8
LAYER_1
 62
   250
 10
-92.4568
 20
76.87
 30
0.0
  0
VERTEX
  5
15C
  8
LAYER_1
 62
   250
 10
-92.3464
 20
77.387
 30
0.0
  0
VERTEX
  5
15D
  8
LAYER_1
 62
   250
 10
-92.2311
 20
77.9019
 30
0.0
  0
VERTEX
  5
15E
  8
LAYER_1
 62
   250
 10
-92.1107
 20
78.4144
 30
0.0
  0
VERTEX
  5
15F
  8
LAYER_1
 62
   250
 10
-91.9851
 20
78.9242
 30
0.0
  0
VERTEX
  5
160
  8
LAYER_1
 62
   250
 10
-91.8542
 20
79.4313
 30
0.0
  0
VERTEX
  5
161
  8
LAYER_1
 62
   250
 10
-91.718
 20
79.9355
 30
0.0
  0
VERTEX
  5
162
  8
LAYER_1
 62
   250
 10
-91.5762
 20
80.4364
 30
0.0
  0
VERTEX
  5
163
  8
LAYER_1
 62
   250
 10
-91.4288
 20
80.934
 30
0.0
  0
VERTEX
  5
164
  8
LAYER_1
 62
   250
 10
-89.9825
 20
85.2315
 30
0.0
  0
VERTEX
  5
165
  8
LAYER_1
 62
   250
 10
-88.3206
 20
89.3718
 30
0.0
  0
VERTEX
  5
166
  8
LAYER_1
 62
   250
 10
-86.4898
 20
93.3235
 30
0.0
  0
VERTEX
  5
167
  8
LAYER_1
 62
   250
 10
-84.5367
 20
97.0553
 30
0.0
  0
VERTEX
  5
168
  8
LAYER_1
 62
   250
 10
-82.508
 20
100.5358
 30
0.0
  0
VERTEX
  5
169
  8
LAYER_1
 62
   250
 10
-80.4505
 20
103.7338
 30
0.0
  0
VERTEX
  5
16A
  8
LAYER_1
 62
   250
 10
-78.4109
 20
106.6177
 30
0.0
  0
VERTEX
  5
16B
  8
LAYER_1
 62
   250
 10
-76.4357
 20
109.1563
 30
0.0
  0
VERTEX
  5
16C
  8
LAYER_1
 62
   250
 10
-75.3498
 20
110.7637
 30
0.0
  0
VERTEX
  5
16D
  8
LAYER_1
 62
   250
 10
-74.4624
 20
112.6007
 30
0.0
  0
VERTEX
  5
16E
  8
LAYER_1
 62
   250
 10
-73.7568
 20
114.5549
 30
0.0
  0
VERTEX
  5
16F
  8
LAYER_1
 62
   250
 10
-73.2166
 20
116.514
 30
0.0
  0
VERTEX
  5
170
  8
LAYER_1
 62
   250
 10
-72.8253
 20
118.3656
 30
0.0
  0
VERTEX
  5
171
  8
LAYER_1
 62
   250
 10
-72.5662
 20
119.9973
 30
0.0
  0
VERTEX
  5
172
  8
LAYER_1
 62
   250
 10
-72.4229
 20
121.2969
 30
0.0
  0
VERTEX
  5
173
  8
LAYER_1
 62
   250
 10
-72.3788
 20
122.1519
 30
0.0
  0
VERTEX
  5
174
  8
LAYER_1
 62
   250
 10
-63.4313
 20
122.1519
 30
0.0
  0
VERTEX
  5
175
  8
LAYER_1
 62
   250
 10
-63.3872
 20
121.2969
 30
0.0
  0
VERTEX
  5
176
  8
LAYER_1
 62
   250
 10
-63.2439
 20
119.9973
 30
0.0
  0
VERTEX
  5
177
  8
LAYER_1
 62
   250
 10
-62.9848
 20
118.3656
 30
0.0
  0
VERTEX
  5
178
  8
LAYER_1
 62
   250
 10
-62.5934
 20
116.514
 30
0.0
  0
VERTEX
  5
179
  8
LAYER_1
 62
   250
 10
-62.0532
 20
114.5549
 30
0.0
  0
VERTEX
  5
17A
  8
LAYER_1
 62
   250
 10
-61.3477
 20
112.6007
 30
0.0
  0
VERTEX
  5
17B
  8
LAYER_1
 62
   250
 10
-60.4602
 20
110.7637
 30
0.0
  0
VERTEX
  5
17C
  8
LAYER_1
 62
   250
 10
-59.3743
 20
109.1563
 30
0.0
  0
VERTEX
  5
17D
  8
LAYER_1
 62
   250
 10
-57.3993
 20
106.6177
 30
0.0
  0
VERTEX
  5
17E
  8
LAYER_1
 62
   250
 10
-55.3596
 20
103.7338
 30
0.0
  0
VERTEX
  5
17F
  8
LAYER_1
 62
   250
 10
-53.3022
 20
100.5358
 30
0.0
  0
VERTEX
  5
180
  8
LAYER_1
 62
   250
 10
-51.2735
 20
97.0553
 30
0.0
  0
VERTEX
  5
181
  8
LAYER_1
 62
   250
 10
-49.3204
 20
93.3235
 30
0.0
  0
VERTEX
  5
182
  8
LAYER_1
 62
   250
 10
-47.4895
 20
89.3718
 30
0.0
  0
VERTEX
  5
183
  8
LAYER_1
 62
   250
 10
-45.8276
 20
85.2315
 30
0.0
  0
VERTEX
  5
184
  8
LAYER_1
 62
   250
 10
-44.3813
 20
80.934
 30
0.0
  0
VERTEX
  5
185
  8
LAYER_1
 62
   250
 10
-44.2339
 20
80.4364
 30
0.0
  0
VERTEX
  5
186
  8
LAYER_1
 62
   250
 10
-44.0921
 20
79.9355
 30
0.0
  0
VERTEX
  5
187
  8
LAYER_1
 62
   250
 10
-43.9558
 20
79.4313
 30
0.0
  0
VERTEX
  5
188
  8
LAYER_1
 62
   250
 10
-43.825
 20
78.9242
 30
0.0
  0
VERTEX
  5
189
  8
LAYER_1
 62
   250
 10
-43.6994
 20
78.4144
 30
0.0
  0
VERTEX
  5
18A
  8
LAYER_1
 62
   250
 10
-43.579
 20
77.9019
 30
0.0
  0
VERTEX
  5
18B
  8
LAYER_1
 62
   250
 10
-43.4637
 20
77.387
 30
0.0
  0
VERTEX
  5
18C
  8
LAYER_1
 62
   250
 10
-43.3533
 20
76.87
 30
0.0
  0
VERTEX
  5
18D
  8
LAYER_1
 62
   250
 10
-43.3229
 20
76.8785
 30
0.0
  0
VERTEX
  5
18E
  8
LAYER_1
 62
   250
 10
-43.1907
 20
76.0604
 30
0.0
  0
VERTEX
  5
18F
  8
LAYER_1
 62
   250
 10
-42.8491
 20
74.1081
 30
0.0
  0
VERTEX
  5
190
  8
LAYER_1
 62
   250
 10
-42.5698
 20
72.1412
 30
0.0
  0
VERTEX
  5
191
  8
LAYER_1
 62
   250
 10
-42.3485
 20
70.1691
 30
0.0
  0
VERTEX
  5
192
  8
LAYER_1
 62
   250
 10
-42.1808
 20
68.2013
 30
0.0
  0
VERTEX
  5
193
  8
LAYER_1
 62
   250
 10
-42.0622
 20
66.2472
 30
0.0
  0
VERTEX
  5
194
  8
LAYER_1
 62
   250
 10
-41.9885
 20
64.3163
 30
0.0
  0
VERTEX
  5
195
  8
LAYER_1
 62
   250
 10
-41.9552
 20
62.418
 30
0.0
  0
VERTEX
  5
196
  8
LAYER_1
 62
   250
 10
-41.958
 20
60.5618
 30
0.0
  0
VERTEX
  5
197
  8
LAYER_1
 62
   250
 10
-41.9552
 20
58.9431
 30
0.0
  0
VERTEX
  5
198
  8
LAYER_1
 62
   250
 10
-41.9885
 20
57.671
 30
0.0
  0
VERTEX
  5
199
  8
LAYER_1
 62
   250
 10
-42.0622
 20
56.6252
 30
0.0
  0
VERTEX
  5
19A
  8
LAYER_1
 62
   250
 10
-42.1808
 20
55.6858
 30
0.0
  0
VERTEX
  5
19B
  8
LAYER_1
 62
   250
 10
-42.3485
 20
54.7327
 30
0.0
  0
VERTEX
  5
19C
  8
LAYER_1
 62
   250
 10
-42.5698
 20
53.6458
 30
0.0
  0
VERTEX
  5
19D
  8
LAYER_1
 62
   250
 10
-42.8491
 20
52.305
 30
0.0
  0
VERTEX
  5
19E
  8
LAYER_1
 62
   250
 10
-43.1907
 20
50.5902
 30
0.0
  0
SEQEND
  5
19F
  8
LAYER_1
 62
   250
  0
POLYLINE
  5
42
  8
LAYER_1
 62
   250
 66
     1
 10
0.0
 20
0.0
 30
0.0
 70
     1
  0
VERTEX
  5
1A0
  8
LAYER_1
 62
   250
 10
47.3491
 20
50.5902
 30
0.0
  0
VERTEX
  5
1A1
  8
LAYER_1
 62
   250
 10
47.2168
 20
49.7725
 30
0.0
  0
VERTEX
  5
1A2
  8
LAYER_1
 62
   250
 10
47.1864
 20
49.7806
 30
0.0
  0
VERTEX
  5
1A3
  8
LAYER_1
 62
   250
 10
47.076
 20
49.2636
 30
0.0
  0
VERTEX
  5
1A4
  8
LAYER_1
 62
   250
 10
46.9608
 20
48.7488
 30
0.0
  0
VERTEX
  5
1A5
  8
LAYER_1
 62
   250
 10
46.8404
 20
48.2363
 30
0.0
  0
VERTEX
  5
1A6
  8
LAYER_1
 62
   250
 10
46.7149
 20
47.7265
 30
0.0
  0
VERTEX
  5
1A7
  8
LAYER_1
 62
   250
 10
46.584
 20
47.2195
 30
0.0
  0
VERTEX
  5
1A8
  8
LAYER_1
 62
   250
 10
46.4478
 20
46.7154
 30
0.0
  0
VERTEX
  5
1A9
  8
LAYER_1
 62
   250
 10
46.3059
 20
46.2145
 30
0.0
  0
VERTEX
  5
1AA
  8
LAYER_1
 62
   250
 10
46.1584
 20
45.7169
 30
0.0
  0
VERTEX
  5
1AB
  8
LAYER_1
 62
   250
 10
44.7121
 20
41.4194
 30
0.0
  0
VERTEX
  5
1AC
  8
LAYER_1
 62
   250
 10
43.0502
 20
37.2791
 30
0.0
  0
VERTEX
  5
1AD
  8
LAYER_1
 62
   250
 10
41.2193
 20
33.3274
 30
0.0
  0
VERTEX
  5
1AE
  8
LAYER_1
 62
   250
 10
39.2662
 20
29.5955
 30
0.0
  0
VERTEX
  5
1AF
  8
LAYER_1
 62
   250
 10
37.2376
 20
26.115
 30
0.0
  0
VERTEX
  5
1B0
  8
LAYER_1
 62
   250
 10
35.1801
 20
22.9171
 30
0.0
  0
VERTEX
  5
1B1
  8
LAYER_1
 62
   250
 10
33.1405
 20
20.0332
 30
0.0
  0
VERTEX
  5
1B2
  8
LAYER_1
 62
   250
 10
31.1654
 20
17.4947
 30
0.0
  0
VERTEX
  5
1B3
  8
LAYER_1
 62
   250
 10
30.1773
 20
16.1612
 30
0.0
  0
VERTEX
  5
1B4
  8
LAYER_1
 62
   250
 10
29.3521
 20
14.8062
 30
0.0
  0
VERTEX
  5
1B5
  8
LAYER_1
 62
   250
 10
28.6776
 20
13.4613
 30
0.0
  0
VERTEX
  5
1B6
  8
LAYER_1
 62
   250
 10
28.1415
 20
12.1583
 30
0.0
  0
VERTEX
  5
1B7
  8
LAYER_1
 62
   250
 10
27.7318
 20
10.9288
 30
0.0
  0
VERTEX
  5
1B8
  8
LAYER_1
 62
   250
 10
27.4362
 20
9.8046
 30
0.0
  0
VERTEX
  5
1B9
  8
LAYER_1
 62
   250
 10
27.2426
 20
8.8171
 30
0.0
  0
VERTEX
  5
1BA
  8
LAYER_1
 62
   250
 10
27.1388
 20
7.9983
 30
0.0
  0
VERTEX
  5
1BB
  8
LAYER_1
 62
   250
 10
27.2426
 20
7.1793
 30
0.0
  0
VERTEX
  5
1BC
  8
LAYER_1
 62
   250
 10
27.4362
 20
6.1919
 30
0.0
  0
VERTEX
  5
1BD
  8
LAYER_1
 62
   250
 10
27.7318
 20
5.0676
 30
0.0
  0
VERTEX
  5
1BE
  8
LAYER_1
 62
   250
 10
28.1415
 20
3.8381
 30
0.0
  0
VERTEX
  5
1BF
  8
LAYER_1
 62
   250
 10
28.6776
 20
2.5352
 30
0.0
  0
VERTEX
  5
1C0
  8
LAYER_1
 62
   250
 10
29.3521
 20
1.1904
 30
0.0
  0
VERTEX
  5
1C1
  8
LAYER_1
 62
   250
 10
30.1773
 20
-0.1646
 30
0.0
  0
VERTEX
  5
1C2
  8
LAYER_1
 62
   250
 10
31.1654
 20
-1.4981
 30
0.0
  0
VERTEX
  5
1C3
  8
LAYER_1
 62
   250
 10
33.1405
 20
-4.0368
 30
0.0
  0
VERTEX
  5
1C4
  8
LAYER_1
 62
   250
 10
35.1801
 20
-6.9208
 30
0.0
  0
VERTEX
  5
1C5
  8
LAYER_1
 62
   250
 10
37.2376
 20
-10.1187
 30
0.0
  0
VERTEX
  5
1C6
  8
LAYER_1
 62
   250
 10
39.2662
 20
-13.5992
 30
0.0
  0
VERTEX
  5
1C7
  8
LAYER_1
 62
   250
 10
41.2193
 20
-17.331
 30
0.0
  0
VERTEX
  5
1C8
  8
LAYER_1
 62
   250
 10
43.0502
 20
-21.2827
 30
0.0
  0
VERTEX
  5
1C9
  8
LAYER_1
 62
   250
 10
44.7121
 20
-25.4229
 30
0.0
  0
VERTEX
  5
1CA
  8
LAYER_1
 62
   250
 10
46.1584
 20
-29.7204
 30
0.0
  0
VERTEX
  5
1CB
  8
LAYER_1
 62
   250
 10
46.3059
 20
-30.218
 30
0.0
  0
VERTEX
  5
1CC
  8
LAYER_1
 62
   250
 10
46.4478
 20
-30.719
 30
0.0
  0
VERTEX
  5
1CD
  8
LAYER_1
 62
   250
 10
46.584
 20
-31.2231
 30
0.0
  0
VERTEX
  5
1CE
  8
LAYER_1
 62
   250
 10
46.7149
 20
-31.7303
 30
0.0
  0
VERTEX
  5
1CF
  8
LAYER_1
 62
   250
 10
46.8404
 20
-32.2402
 30
0.0
  0
VERTEX
  5
1D0
  8
LAYER_1
 62
   250
 10
46.9608
 20
-32.7526
 30
0.0
  0
VERTEX
  5
1D1
  8
LAYER_1
 62
   250
 10
47.076
 20
-33.2675
 30
0.0
  0
VERTEX
  5
1D2
  8
LAYER_1
 62
   250
 10
47.1864
 20
-33.7844
 30
0.0
  0
VERTEX
  5
1D3
  8
LAYER_1
 62
   250
 10
47.2168
 20
-33.7759
 30
0.0
  0
VERTEX
  5
1D4
  8
LAYER_1
 62
   250
 10
47.3491
 20
-34.5943
 30
0.0
  0
VERTEX
  5
1D5
  8
LAYER_1
 62
   250
 10
47.6908
 20
-36.309
 30
0.0
  0
VERTEX
  5
1D6
  8
LAYER_1
 62
   250
 10
47.9701
 20
-37.6497
 30
0.0
  0
VERTEX
  5
1D7
  8
LAYER_1
 62
   250
 10
48.1915
 20
-38.7366
 30
0.0
  0
VERTEX
  5
1D8
  8
LAYER_1
 62
   250
 10
48.3592
 20
-39.6896
 30
0.0
  0
VERTEX
  5
1D9
  8
LAYER_1
 62
   250
 10
48.4777
 20
-40.629
 30
0.0
  0
VERTEX
  5
1DA
  8
LAYER_1
 62
   250
 10
48.5513
 20
-41.6747
 30
0.0
  0
VERTEX
  5
1DB
  8
LAYER_1
 62
   250
 10
48.5846
 20
-42.9469
 30
0.0
  0
VERTEX
  5
1DC
  8
LAYER_1
 62
   250
 10
48.5817
 20
-44.5656
 30
0.0
  0
VERTEX
  5
1DD
  8
LAYER_1
 62
   250
 10
48.5846
 20
-46.4218
 30
0.0
  0
VERTEX
  5
1DE
  8
LAYER_1
 62
   250
 10
48.5513
 20
-48.3201
 30
0.0
  0
VERTEX
  5
1DF
  8
LAYER_1
 62
   250
 10
48.4777
 20
-50.2511
 30
0.0
  0
VERTEX
  5
1E0
  8
LAYER_1
 62
   250
 10
48.3592
 20
-52.2053
 30
0.0
  0
VERTEX
  5
1E1
  8
LAYER_1
 62
   250
 10
48.1915
 20
-54.1731
 30
0.0
  0
VERTEX
  5
1E2
  8
LAYER_1
 62
   250
 10
47.9701
 20
-56.1452
 30
0.0
  0
VERTEX
  5
1E3
  8
LAYER_1
 62
   250
 10
47.6908
 20
-58.1121
 30
0.0
  0
VERTEX
  5
1E4
  8
LAYER_1
 62
   250
 10
47.3491
 20
-60.0642
 30
0.0
  0
VERTEX
  5
1E5
  8
LAYER_1
 62
   250
 10
47.2168
 20
-60.8823
 30
0.0
  0
VERTEX
  5
1E6
  8
LAYER_1
 62
   250
 10
47.1864
 20
-60.8742
 30
0.0
  0
VERTEX
  5
1E7
  8
LAYER_1
 62
   250
 10
47.076
 20
-61.3911
 30
0.0
  0
VERTEX
  5
1E8
  8
LAYER_1
 62
   250
 10
46.9608
 20
-61.9059
 30
0.0
  0
VERTEX
  5
1E9
  8
LAYER_1
 62
   250
 10
46.8404
 20
-62.4183
 30
0.0
  0
VERTEX
  5
1EA
  8
LAYER_1
 62
   250
 10
46.7149
 20
-62.9281
 30
0.0
  0
VERTEX
  5
1EB
  8
LAYER_1
 62
   250
 10
46.584
 20
-63.4352
 30
0.0
  0
VERTEX
  5
1EC
  8
LAYER_1
 62
   250
 10
46.4478
 20
-63.9393
 30
0.0
  0
VERTEX
  5
1ED
  8
LAYER_1
 62
   250
 10
46.3059
 20
-64.4402
 30
0.0
  0
VERTEX
  5
1EE
  8
LAYER_1
 62
   250
 10
46.1584
 20
-64.9378
 30
0.0
  0
VERTEX
  5
1EF
  8
LAYER_1
 62
   250
 10
44.7121
 20
-69.2353
 30
0.0
  0
VERTEX
  5
1F0
  8
LAYER_1
 62
   250
 10
43.0502
 20
-73.3756
 30
0.0
  0
VERTEX
  5
1F1
  8
LAYER_1
 62
   250
 10
41.2193
 20
-77.3273
 30
0.0
  0
VERTEX
  5
1F2
  8
LAYER_1
 62
   250
 10
39.2662
 20
-81.0591
 30
0.0
  0
VERTEX
  5
1F3
  8
LAYER_1
 62
   250
 10
37.2376
 20
-84.5396
 30
0.0
  0
VERTEX
  5
1F4
  8
LAYER_1
 62
   250
 10
35.1801
 20
-87.7375
 30
0.0
  0
VERTEX
  5
1F5
  8
LAYER_1
 62
   250
 10
33.1405
 20
-90.6214
 30
0.0
  0
VERTEX
  5
1F6
  8
LAYER_1
 62
   250
 10
31.1654
 20
-93.16
 30
0.0
  0
VERTEX
  5
1F7
  8
LAYER_1
 62
   250
 10
30.0795
 20
-94.7674
 30
0.0
  0
VERTEX
  5
1F8
  8
LAYER_1
 62
   250
 10
29.192
 20
-96.6044
 30
0.0
  0
VERTEX
  5
1F9
  8
LAYER_1
 62
   250
 10
28.4865
 20
-98.5586
 30
0.0
  0
VERTEX
  5
1FA
  8
LAYER_1
 62
   250
 10
27.9463
 20
-100.5176
 30
0.0
  0
VERTEX
  5
1FB
  8
LAYER_1
 62
   250
 10
27.5549
 20
-102.3691
 30
0.0
  0
VERTEX
  5
1FC
  8
LAYER_1
 62
   250
 10
27.2958
 20
-104.0008
 30
0.0
  0
VERTEX
  5
1FD
  8
LAYER_1
 62
   250
 10
27.1525
 20
-105.3003
 30
0.0
  0
VERTEX
  5
1FE
  8
LAYER_1
 62
   250
 10
27.1084
 20
-106.1553
 30
0.0
  0
VERTEX
  5
1FF
  8
LAYER_1
 62
   250
 10
18.1609
 20
-106.1553
 30
0.0
  0
VERTEX
  5
200
  8
LAYER_1
 62
   250
 10
18.1168
 20
-105.3003
 30
0.0
  0
VERTEX
  5
201
  8
LAYER_1
 62
   250
 10
17.9735
 20
-104.0008
 30
0.0
  0
VERTEX
  5
202
  8
LAYER_1
 62
   250
 10
17.7144
 20
-102.3691
 30
0.0
  0
VERTEX
  5
203
  8
LAYER_1
 62
   250
 10
17.3231
 20
-100.5176
 30
0.0
  0
VERTEX
  5
204
  8
LAYER_1
 62
   250
 10
16.7829
 20
-98.5586
 30
0.0
  0
VERTEX
  5
205
  8
LAYER_1
 62
   250
 10
16.0773
 20
-96.6044
 30
0.0
  0
VERTEX
  5
206
  8
LAYER_1
 62
   250
 10
15.1899
 20
-94.7674
 30
0.0
  0
VERTEX
  5
207
  8
LAYER_1
 62
   250
 10
14.104
 20
-93.16
 30
0.0
  0
VERTEX
  5
208
  8
LAYER_1
 62
   250
 10
12.1288
 20
-90.6214
 30
0.0
  0
VERTEX
  5
209
  8
LAYER_1
 62
   250
 10
10.0892
 20
-87.7375
 30
0.0
  0
VERTEX
  5
20A
  8
LAYER_1
 62
   250
 10
8.0317
 20
-84.5396
 30
0.0
  0
VERTEX
  5
20B
  8
LAYER_1
 62
   250
 10
6.003
 20
-81.0591
 30
0.0
  0
VERTEX
  5
20C
  8
LAYER_1
 62
   250
 10
4.0499
 20
-77.3273
 30
0.0
  0
VERTEX
  5
20D
  8
LAYER_1
 62
   250
 10
2.2191
 20
-73.3756
 30
0.0
  0
VERTEX
  5
20E
  8
LAYER_1
 62
   250
 10
0.5572
 20
-69.2353
 30
0.0
  0
VERTEX
  5
20F
  8
LAYER_1
 62
   250
 10
-0.8891
 20
-64.9378
 30
0.0
  0
VERTEX
  5
210
  8
LAYER_1
 62
   250
 10
-1.0364
 20
-64.4402
 30
0.0
  0
VERTEX
  5
211
  8
LAYER_1
 62
   250
 10
-1.1782
 20
-63.9393
 30
0.0
  0
VERTEX
  5
212
  8
LAYER_1
 62
   250
 10
-1.3144
 20
-63.4352
 30
0.0
  0
VERTEX
  5
213
  8
LAYER_1
 62
   250
 10
-1.4453
 20
-62.9281
 30
0.0
  0
VERTEX
  5
214
  8
LAYER_1
 62
   250
 10
-1.5709
 20
-62.4183
 30
0.0
  0
VERTEX
  5
215
  8
LAYER_1
 62
   250
 10
-1.6913
 20
-61.9059
 30
0.0
  0
VERTEX
  5
216
  8
LAYER_1
 62
   250
 10
-1.8067
 20
-61.3911
 30
0.0
  0
VERTEX
  5
217
  8
LAYER_1
 62
   250
 10
-1.9171
 20
-60.8742
 30
0.0
  0
VERTEX
  5
218
  8
LAYER_1
 62
   250
 10
-1.9474
 20
-60.8823
 30
0.0
  0
VERTEX
  5
219
  8
LAYER_1
 62
   250
 10
-2.0797
 20
-60.0642
 30
0.0
  0
VERTEX
  5
21A
  8
LAYER_1
 62
   250
 10
-2.4212
 20
-58.1121
 30
0.0
  0
VERTEX
  5
21B
  8
LAYER_1
 62
   250
 10
-2.7004
 20
-56.1452
 30
0.0
  0
VERTEX
  5
21C
  8
LAYER_1
 62
   250
 10
-2.9216
 20
-54.1731
 30
0.0
  0
VERTEX
  5
21D
  8
LAYER_1
 62
   250
 10
-3.0893
 20
-52.2053
 30
0.0
  0
VERTEX
  5
21E
  8
LAYER_1
 62
   250
 10
-3.2079
 20
-50.2511
 30
0.0
  0
VERTEX
  5
21F
  8
LAYER_1
 62
   250
 10
-3.2816
 20
-48.3201
 30
0.0
  0
VERTEX
  5
220
  8
LAYER_1
 62
   250
 10
-3.315
 20
-46.4218
 30
0.0
  0
VERTEX
  5
221
  8
LAYER_1
 62
   250
 10
-3.3123
 20
-44.5656
 30
0.0
  0
VERTEX
  5
222
  8
LAYER_1
 62
   250
 10
-3.315
 20
-42.9469
 30
0.0
  0
VERTEX
  5
223
  8
LAYER_1
 62
   250
 10
-3.2816
 20
-41.6747
 30
0.0
  0
VERTEX
  5
224
  8
LAYER_1
 62
   250
 10
-3.2079
 20
-40.629
 30
0.0
  0
VERTEX
  5
225
  8
LAYER_1
 62
   250
 10
-3.0893
 20
-39.6896
 30
0.0
  0
VERTEX
  5
226
  8
LAYER_1
 62
   250
 10
-2.9216
 20
-38.7366
 30
0.0
  0
VERTEX
  5
227
  8
LAYER_1
 62
   250
 10
-2.7004
 20
-37.6497
 30
0.0
  0
VERTEX
  5
228
  8
LAYER_1
 62
   250
 10
-2.4212
 20
-36.309
 30
0.0
  0
VERTEX
  5
229
  8
LAYER_1
 62
   250
 10
-2.0797
 20
-34.5943
 30
0.0
  0
VERTEX
  5
22A
  8
LAYER_1
 62
   250
 10
-1.9474
 20
-33.7759
 30
0.0
  0
VERTEX
  5
22B
  8
LAYER_1
 62
   250
 10
-1.9171
 20
-33.7844
 30
0.0
  0
VERTEX
  5
22C
  8
LAYER_1
 62
   250
 10
-1.8067
 20
-33.2675
 30
0.0
  0
VERTEX
  5
22D
  8
LAYER_1
 62
   250
 10
-1.6913
 20
-32.7526
 30
0.0
  0
VERTEX
  5
22E
  8
LAYER_1
 62
   250
 10
-1.5709
 20
-32.2402
 30
0.0
  0
VERTEX
  5
22F
  8
LAYER_1
 62
   250
 10
-1.4453
 20
-31.7303
 30
0.0
  0
VERTEX
  5
230
  8
LAYER_1
 62
   250
 10
-1.3144
 20
-31.2231
 30
0.0
  0
VERTEX
  5
231
  8
LAYER_1
 62
   250
 10
-1.1782
 20
-30.719
 30
0.0
  0
VERTEX
  5
232
  8
LAYER_1
 62
   250
 10
-1.0364
 20
-30.218
 30
0.0
  0
VERTEX
  5
233
  8
LAYER_1
 62
   250
 10
-0.8891
 20
-29.7204
 30
0.0
  0
VERTEX
  5
234
  8
LAYER_1
 62
   250
 10
0.5572
 20
-25.4229
 30
0.0
  0
VERTEX
  5
235
  8
LAYER_1
 62
   250
 10
2.2191
 20
-21.2827
 30
0.0
  0
VERTEX
  5
236
  8
LAYER_1
 62
   250
 10
4.0499
 20
-17.331
 30
0.0
  0
VERTEX
  5
237
  8
LAYER_1
 62
   250
 10
6.003
 20
-13.5992
 30
0.0
  0
VERTEX
  5
238
  8
LAYER_1
 62
   250
 10
8.0317
 20
-10.1187
 30
0.0
  0
VERTEX
  5
239
  8
LAYER_1
 62
   250
 10
10.0892
 20
-6.9208
 30
0.0
  0
VERTEX
  5
23A
  8
LAYER_1
 62
   250
 10
12.1288
 20
-4.0368
 30
0.0
  0
VERTEX
  5
23B
  8
LAYER_1
 62
   250
 10
14.104
 20
-1.4981
 30
0.0
  0
VERTEX
  5
23C
  8
LAYER_1
 62
   250
 10
15.0921
 20
-0.1646
 30
0.0
  0
VERTEX
  5
23D
  8
LAYER_1
 62
   250
 10
15.9172
 20
1.1904
 30
0.0
  0
VERTEX
  5
23E
  8
LAYER_1
 62
   250
 10
16.5918
 20
2.5352
 30
0.0
  0
VERTEX
  5
23F
  8
LAYER_1
 62
   250
 10
17.1278
 20
3.8381
 30
0.0
  0
VERTEX
  5
240
  8
LAYER_1
 62
   250
 10
17.5376
 20
5.0676
 30
0.0
  0
VERTEX
  5
241
  8
LAYER_1
 62
   250
 10
17.8333
 20
6.1919
 30
0.0
  0
VERTEX
  5
242
  8
LAYER_1
 62
   250
 10
18.0272
 20
7.1793
 30
0.0
  0
VERTEX
  5
243
  8
LAYER_1
 62
   250
 10
18.1313
 20
7.9983
 30
0.0
  0
VERTEX
  5
244
  8
LAYER_1
 62
   250
 10
18.0272
 20
8.8171
 30
0.0
  0
VERTEX
  5
245
  8
LAYER_1
 62
   250
 10
17.8333
 20
9.8046
 30
0.0
  0
VERTEX
  5
246
  8
LAYER_1
 62
   250
 10
17.5376
 20
10.9288
 30
0.0
  0
VERTEX
  5
247
  8
LAYER_1
 62
   250
 10
17.1278
 20
12.1583
 30
0.0
  0
VERTEX
  5
248
  8
LAYER_1
 62
   250
 10
16.5918
 20
13.4613
 30
0.0
  0
VERTEX
  5
249
  8
LAYER_1
 62
   250
 10
15.9172
 20
14.8062
 30
0.0
  0
VERTEX
  5
24A
  8
LAYER_1
 62
   250
 10
15.0921
 20
16.1612
 30
0.0
  0
VERTEX
  5
24B
  8
LAYER_1
 62
   250
 10
14.104
 20
17.4947
 30
0.0
  0
VERTEX
  5
24C
  8
LAYER_1
 62
   250
 10
12.1288
 20
20.0332
 30
0.0
  0
VERTEX
  5
24D
  8
LAYER_1
 62
   250
 10
10.0892
 20
22.9171
 30
0.0
  0
VERTEX
  5
24E
  8
LAYER_1
 62
   250
 10
8.0317
 20
26.115
 30
0.0
  0
VERTEX
  5
24F
  8
LAYER_1
 62
   250
 10
6.003
 20
29.5955
 30
0.0
  0
VERTEX
  5
250
  8
LAYER_1
 62
   250
 10
4.0499
 20
33.3274
 30
0.0
  0
VERTEX
  5
251
  8
LAYER_1
 62
   250
 10
2.2191
 20
37.2791
 30
0.0
  0
VERTEX
  5
252
  8
LAYER_1
 62
   250
 10
0.5572
 20
41.4194
 30
0.0
  0
VERTEX
  5
253
  8
LAYER_1
 62
   250
 10
-0.8891
 20
45.7169
 30
0.0
  0
VERTEX
  5
254
  8
LAYER_1
 62
   250
 10
-1.0364
 20
46.2145
 30
0.0
  0
VERTEX
  5
255
  8
LAYER_1
 62
   250
 10
-1.1782
 20
46.7154
 30
0.0
  0
VERTEX
  5
256
  8
LAYER_1
 62
   250
 10
-1.3144
 20
47.2195
 30
0.0
  0
VERTEX
  5
257
  8
LAYER_1
 62
   250
 10
-1.4453
 20
47.7265
 30
0.0
  0
VERTEX
  5
258
  8
LAYER_1
 62
   250
 10
-1.5709
 20
48.2363
 30
0.0
  0
VERTEX
  5
259
  8
LAYER_1
 62
   250
 10
-1.6913
 20
48.7488
 30
0.0
  0
VERTEX
  5
25A
  8
LAYER_1
 62
   250
 10
-1.8067
 20
49.2636
 30
0.0
  0
VERTEX
  5
25B
  8
LAYER_1
 62
   250
 10
-1.9171
 20
49.7806
 30
0.0
  0
VERTEX
  5
25C
  8
LAYER_1
 62
   250
 10
-1.9474
 20
49.7725
 30
0.0
  0
VERTEX
  5
25D
  8
LAYER_1
 62
   250
 10
-2.0797
 20
50.5902
 30
0.0
  0
VERTEX
  5
25E
  8
LAYER_1
 62
   250
 10
-2.4212
 20
52.305
 30
0.0
  0
VERTEX
  5
25F
  8
LAYER_1
 62
   250
 10
-2.7004
 20
53.6458
 30
0.0
  0
VERTEX
  5
260
  8
LAYER_1
 62
   250
 10
-2.9216
 20
54.7327
 30
0.0
  0
VERTEX
  5
261
  8
LAYER_1
 62
   250
 10
-3.0893
 20
55.6858
 30
0.0
  0
VERTEX
  5
262
  8
LAYER_1
 62
   250
 10
-3.2079
 20
56.6252
 30
0.0
  0
VERTEX
  5
263
  8
LAYER_1
 62
   250
 10
-3.2816
 20
57.671
 30
0.0
  0
VERTEX
  5
264
  8
LAYER_1
 62
   250
 10
-3.315
 20
58.9431
 30
0.0
  0
VERTEX
  5
265
  8
LAYER_1
 62
   250
 10
-3.3123
 20
60.5618
 30
0.0
  0
VERTEX
  5
266
  8
LAYER_1
 62
   250
 10
-3.315
 20
62.418
 30
0.0
  0
VERTEX
  5
267
  8
LAYER_1
 62
   250
 10
-3.2816
 20
64.3163
 30
0.0
  0
VERTEX
  5
268
  8
LAYER_1
 62
   250
 10
-3.2079
 20
66.2472
 30
0.0
  0
VERTEX
  5
269
  8
LAYER_1
 62
   250
 10
-3.0893
 20
68.2013
 30
0.0
  0
VERTEX
  5
26A
  8
LAYER_1
 62
   250
 10
-2.9216
 20
70.1691
 30
0.0
  0
VERTEX
  5
26B
  8
LAYER_1
 62
   250
 10
-2.7004
 20
72.1412
 30
0.0
  0
VERTEX
  5
26C
  8
LAYER_1
 62
   250
 10
-2.4212
 20
74.1081
 30
0.0
  0
VERTEX
  5
26D
  8
LAYER_1
 62
   250
 10
-2.0797
 20
76.0604
 30
0.0
  0
VERTEX
  5
26E
  8
LAYER_1
 62
   250
 10
-1.9474
 20
76.8785
 30
0.0
  0
VERTEX
  5
26F
  8
LAYER_1
 62
   250
 10
-1.9171
 20
76.87
 30
0.0
  0
VERTEX
  5
270
  8
LAYER_1
 62
   250
 10
-1.8067
 20
77.387
 30
0.0
  0
VERTEX
  5
271
  8
LAYER_1
 62
   250
 10
-1.6913
 20
77.9019
 30
0.0
  0
VERTEX
  5
272
  8
LAYER_1
 62
   250
 10
-1.5709
 20
78.4144
 30
0.0
  0
VERTEX
  5
273
  8
LAYER_1
 62
   250
 10
-1.4453
 20
78.9242
 30
0.0
  0
VERTEX
  5
274
  8
LAYER_1
 62
   250
 10
-1.3144
 20
79.4313
 30
0.0
  0
VERTEX
  5
275
  8
LAYER_1
 62
   250
 10
-1.1782
 20
79.9355
 30
0.0
  0
VERTEX
  5
276
  8
LAYER_1
 62
   250
 10
-1.0364
 20
80.4364
 30
0.0
  0
VERTEX
  5
277
  8
LAYER_1
 62
   250
 10
-0.8891
 20
80.934
 30
0.0
  0
VERTEX
  5
278
  8
LAYER_1
 62
   250
 10
0.5572
 20
85.2315
 30
0.0
  0
VERTEX
  5
279
  8
LAYER_1
 62
   250
 10
2.2191
 20
89.3718
 30
0.0
  0
VERTEX
  5
27A
  8
LAYER_1
 62
   250
 10
4.0499
 20
93.3235
 30
0.0
  0
VERTEX
  5
27B
  8
LAYER_1
 62
   250
 10
6.003
 20
97.0553
 30
0.0
  0
VERTEX
  5
27C
  8
LAYER_1
 62
   250
 10
8.0317
 20
100.5358
 30
0.0
  0
VERTEX
  5
27D
  8
LAYER_1
 62
   250
 10
10.0892
 20
103.7338
 30
0.0
  0
VERTEX
  5
27E
  8
LAYER_1
 62
   250
 10
12.1288
 20
106.6177
 30
0.0
  0
VERTEX
  5
27F
  8
LAYER_1
 62
   250
 10
14.104
 20
109.1563
 30
0.0
  0
VERTEX
  5
280
  8
LAYER_1
 62
   250
 10
15.1899
 20
110.7637
 30
0.0
  0
VERTEX
  5
281
  8
LAYER_1
 62
   250
 10
16.0773
 20
112.6007
 30
0.0
  0
VERTEX
  5
282
  8
LAYER_1
 62
   250
 10
16.7829
 20
114.5549
 30
0.0
  0
VERTEX
  5
283
  8
LAYER_1
 62
   250
 10
17.3231
 20
116.514
 30
0.0
  0
VERTEX
  5
284
  8
LAYER_1
 62
   250
 10
17.7144
 20
118.3656
 30
0.0
  0
VERTEX
  5
285
  8
LAYER_1
 62
   250
 10
17.9735
 20
119.9973
 30
0.0
  0
VERTEX
  5
286
  8
LAYER_1
 62
   250
 10
18.1168
 20
121.2969
 30
0.0
  0
VERTEX
  5
287
  8
LAYER_1
 62
   250
 10
18.1609
 20
122.1519
 30
0.0
  0
VERTEX
  5
288
  8
LAYER_1
 62
   250
 10
27.1084
 20
122.1519
 30
0.0
  0
VERTEX
  5
289
  8
LAYER_1
 62
   250
 10
27.1525
 20
121.2969
 30
0.0
  0
VERTEX
  5
28A
  8
LAYER_1
 62
   250
 10
27.2958
 20
119.9973
 30
0.0
  0
VERTEX
  5
28B
  8
LAYER_1
 62
   250
 10
27.5549
 20
118.3656
 30
0.0
  0
VERTEX
  5
28C
  8
LAYER_1
 62
   250
 10
27.9463
 20
116.514
 30
0.0
  0
VERTEX
  5
28D
  8
LAYER_1
 62
   250
 10
28.4865
 20
114.5549
 30
0.0
  0
VERTEX
  5
28E
  8
LAYER_1
 62
   250
 10
29.192
 20
112.6007
 30
0.0
  0
VERTEX
  5
28F
  8
LAYER_1
 62
   250
 10
30.0795
 20
110.7637
 30
0.0
  0
VERTEX
  5
290
  8
LAYER_1
 62
   250
 10
31.1654
 20
109.1563
 30
0.0
  0
VERTEX
  5
291
  8
LAYER_1
 62
   250
 10
33.1405
 20
106.6177
 30
0.0
  0
VERTEX
  5
292
  8
LAYER_1
 62
   250
 10
35.1801
 20
103.7338
 30
0.0
  0
VERTEX
  5
293
  8
LAYER_1
 62
   250
 10
37.2376
 20
100.5358
 30
0.0
  0
VERTEX
  5
294
  8
LAYER_1
 62
   250
 10
39.2662
 20
97.0553
 30
0.0
  0
VERTEX
  5
295
  8
LAYER_1
 62
   250
 10
41.2193
 20
93.3235
 30
0.0
  0
VERTEX
  5
296
  8
LAYER_1
 62
   250
 10
43.0502
 20
89.3718
 30
0.0
  0
VERTEX
  5
297
  8
LAYER_1
 62
   250
 10
44.7121
 20
85.2315
 30
0.0
  0
VERTEX
  5
298
  8
LAYER_1
 62
   250
 10
46.1584
 20
80.934
 30
0.0
  0
VERTEX
  5
299
  8
LAYER_1
 62
   250
 10
46.3059
 20
80.4364
 30
0.0
  0
VERTEX
  5
29A
  8
LAYER_1
 62
   250
 10
46.4478
 20
79.9355
 30
0.0
  0
VERTEX
  5
29B
  8
LAYER_1
 62
   250
 10
46.584
 20
79.4313
 30
0.0
  0
VERTEX
  5
29C
  8
LAYER_1
 62
   250
 10
46.7149
 20
78.9242
 30
0.0
  0
VERTEX
  5
29D
  8
LAYER_1
 62
   250
 10
46.8404
 20
78.4144
 30
0.0
  0
VERTEX
  5
29E
  8
LAYER_1
 62
   250
 10
46.9608
 20
77.9019
 30
0.0
  0
VERTEX
  5
29F
  8
LAYER_1
 62
   250
 10
47.076
 20
77.387
 30
0.0
  0
VERTEX
  5
2A0
  8
LAYER_1
 62
   250
 10
47.1864
 20
76.87
 30
0.0
  0
VERTEX
  5
2A1
  8
LAYER_1
 62
   250
 10
47.2168
 20
76.8785
 30
0.0
  0
VERTEX
  5
2A2
  8
LAYER_1
 62
   250
 10
47.3491
 20
76.0604
 30
0.0
  0
VERTEX
  5
2A3
  8
LAYER_1
 62
   250
 10
47.6908
 20
74.1081
 30
0.0
  0
VERTEX
  5
2A4
  8
LAYER_1
 62
   250
 10
47.9701
 20
72.1412
 30
0.0
  0
VERTEX
  5
2A5
  8
LAYER_1
 62
   250
 10
48.1915
 20
70.1691
 30
0.0
  0
VERTEX
  5
2A6
  8
LAYER_1
 62
   250
 10
48.3592
 20
68.2013
 30
0.0
  0
VERTEX
  5
2A7
  8
LAYER_1
 62
   250
 10
48.4777
 20
66.2472
 30
0.0
  0
VERTEX
  5
2A8
  8
LAYER_1
 62
   250
 10
48.5513
 20
64.3163
 30
0.0
  0
VERTEX
  5
2A9
  8
LAYER_1
 62
   250
 10
48.5846
 20
62.418
 30
0.0
  0
VERTEX
  5
2AA
  8
LAYER_1
 62
   250
 10
48.5817
 20
60.5618
 30
0.0
  0
VERTEX
  5
2AB
  8
LAYER_1
 62
   250
 10
48.5846
 20
58.9431
 30
0.0
  0
VERTEX
  5
2AC
  8
LAYER_1
 62
   250
 10
48.5513
 20
57.671
 30
0.0
  0
VERTEX
  5
2AD
  8
LAYER_1
 62
   250
 10
48.4777
 20
56.6252
 30
0.0
  0
VERTEX
  5
2AE
  8
LAYER_1
 62
   250
 10
48.3592
 20
55.6858
 30
0.0
  0
VERTEX
  5
2AF
  8
LAYER_1
 62
   250
 10
48.1915
 20
54.7327
 30
0.0
  0
VERTEX
  5
2B0
  8
LAYER_1
 62
   250
 10
47.9701
 20
53.6458
 30
0.0
  0
VERTEX
  5
2B1
  8
LAYER_1
 62
   250
 10
47.6908
 20
52.305
 30
0.0
  0
VERTEX
  5
2B2
  8
LAYER_1
 62
   250
 10
47.3491
 20
50.5902
 30
0.0
  0
SEQEND
  5
2B3
  8
LAYER_1
 62
   250
  0
POLYLINE
  5
43
  8
LAYER_1
 62
   250
 66
     1
 10
0.0
 20
0.0
 30
0.0
 70
     1
  0
VERTEX
  5
2B4
  8
LAYER_1
 62
   250
 10
-14.1045
 20
-39.1869
 30
0.0
  0
VERTEX
  5
2B5
  8
LAYER_1
 62
   250
 10
-15.1739
 20
-40.6427
 30
0.0
  0
VERTEX
  5
2B6
  8
LAYER_1
 62
   250
 10
-16.0509
 20
-42.1207
 30
0.0
  0
VERTEX
  5
2B7
  8
LAYER_1
 62
   250
 10
-16.7515
 20
-43.58
 30
0.0
  0
VERTEX
  5
2B8
  8
LAYER_1
 62
   250
 10
-17.2913
 20
-44.9792
 30
0.0
  0
VERTEX
  5
2B9
  8
LAYER_1
 62
   250
 10
-17.6861
 20
-46.2774
 30
0.0
  0
VERTEX
  5
2BA
  8
LAYER_1
 62
   250
 10
-17.9517
 20
-47.4332
 30
0.0
  0
VERTEX
  5
2BB
  8
LAYER_1
 62
   250
 10
-18.104
 20
-48.4057
 30
0.0
  0
VERTEX
  5
2BC
  8
LAYER_1
 62
   250
 10
-18.1587
 20
-49.1536
 30
0.0
  0
VERTEX
  5
2BD
  8
LAYER_1
 62
   250
 10
-18.104
 20
-49.9016
 30
0.0
  0
VERTEX
  5
2BE
  8
LAYER_1
 62
   250
 10
-17.9517
 20
-50.8741
 30
0.0
  0
VERTEX
  5
2BF
  8
LAYER_1
 62
   250
 10
-17.6861
 20
-52.03
 30
0.0
  0
VERTEX
  5
2C0
  8
LAYER_1
 62
   250
 10
-17.2913
 20
-53.3282
 30
0.0
  0
VERTEX
  5
2C1
  8
LAYER_1
 62
   250
 10
-16.7515
 20
-54.7274
 30
0.0
  0
VERTEX
  5
2C2
  8
LAYER_1
 62
   250
 10
-16.0509
 20
-56.1866
 30
0.0
  0
VERTEX
  5
2C3
  8
LAYER_1
 62
   250
 10
-15.1739
 20
-57.6646
 30
0.0
  0
VERTEX
  5
2C4
  8
LAYER_1
 62
   250
 10
-14.1045
 20
-59.1203
 30
0.0
  0
VERTEX
  5
2C5
  8
LAYER_1
 62
   250
 10
-12.1295
 20
-61.659
 30
0.0
  0
VERTEX
  5
2C6
  8
LAYER_1
 62
   250
 10
-10.0898
 20
-64.543
 30
0.0
  0
VERTEX
  5
2C7
  8
LAYER_1
 62
   250
 10
-8.0324
 20
-67.7409
 30
0.0
  0
VERTEX
  5
2C8
  8
LAYER_1
 62
   250
 10
-6.0037
 20
-71.2214
 30
0.0
  0
VERTEX
  5
2C9
  8
LAYER_1
 62
   250
 10
-4.0506
 20
-74.9532
 30
0.0
  0
VERTEX
  5
2CA
  8
LAYER_1
 62
   250
 10
-2.2197
 20
-78.9048
 30
0.0
  0
VERTEX
  5
2CB
  8
LAYER_1
 62
   250
 10
-0.5578
 20
-83.0451
 30
0.0
  0
VERTEX
  5
2CC
  8
LAYER_1
 62
   250
 10
0.8885
 20
-87.3425
 30
0.0
  0
VERTEX
  5
2CD
  8
LAYER_1
 62
   250
 10
2.3005
 20
-93.4287
 30
0.0
  0
VERTEX
  5
2CE
  8
LAYER_1
 62
   250
 10
3.0619
 20
-99.7017
 30
0.0
  0
VERTEX
  5
2CF
  8
LAYER_1
 62
   250
 10
3.315
 20
-105.8538
 30
0.0
  0
VERTEX
  5
2D0
  8
LAYER_1
 62
   250
 10
3.2025
 20
-111.5773
 30
0.0
  0
VERTEX
  5
2D1
  8
LAYER_1
 62
   250
 10
2.8669
 20
-116.5644
 30
0.0
  0
VERTEX
  5
2D2
  8
LAYER_1
 62
   250
 10
2.4508
 20
-120.5076
 30
0.0
  0
VERTEX
  5
2D3
  8
LAYER_1
 62
   250
 10
2.0965
 20
-123.0992
 30
0.0
  0
VERTEX
  5
2D4
  8
LAYER_1
 62
   250
 10
1.9468
 20
-124.0314
 30
0.0
  0
VERTEX
  5
2D5
  8
LAYER_1
 62
   250
 10
-1.8512
 20
-122.7929
 30
0.0
  0
VERTEX
  5
2D6
  8
LAYER_1
 62
   250
 10
-5.663
 20
-121.0849
 30
0.0
  0
VERTEX
  5
2D7
  8
LAYER_1
 62
   250
 10
-9.3781
 20
-119.0606
 30
0.0
  0
VERTEX
  5
2D8
  8
LAYER_1
 62
   250
 10
-12.886
 20
-116.8732
 30
0.0
  0
VERTEX
  5
2D9
  8
LAYER_1
 62
   250
 10
-16.0762
 20
-114.6761
 30
0.0
  0
VERTEX
  5
2DA
  8
LAYER_1
 62
   250
 10
-18.8382
 20
-112.6225
 30
0.0
  0
VERTEX
  5
2DB
  8
LAYER_1
 62
   250
 10
-21.0614
 20
-110.8656
 30
0.0
  0
VERTEX
  5
2DC
  8
LAYER_1
 62
   250
 10
-22.6354
 20
-109.5587
 30
0.0
  0
VERTEX
  5
2DD
  8
LAYER_1
 62
   250
 10
-24.2092
 20
-110.8656
 30
0.0
  0
VERTEX
  5
2DE
  8
LAYER_1
 62
   250
 10
-26.4323
 20
-112.6225
 30
0.0
  0
VERTEX
  5
2DF
  8
LAYER_1
 62
   250
 10
-29.1942
 20
-114.6761
 30
0.0
  0
VERTEX
  5
2E0
  8
LAYER_1
 62
   250
 10
-32.3844
 20
-116.8732
 30
0.0
  0
VERTEX
  5
2E1
  8
LAYER_1
 62
   250
 10
-35.8923
 20
-119.0606
 30
0.0
  0
VERTEX
  5
2E2
  8
LAYER_1
 62
   250
 10
-39.6074
 20
-121.0849
 30
0.0
  0
VERTEX
  5
2E3
  8
LAYER_1
 62
   250
 10
-43.4193
 20
-122.7929
 30
0.0
  0
VERTEX
  5
2E4
  8
LAYER_1
 62
   250
 10
-47.2173
 20
-124.0314
 30
0.0
  0
VERTEX
  5
2E5
  8
LAYER_1
 62
   250
 10
-47.367
 20
-123.0992
 30
0.0
  0
VERTEX
  5
2E6
  8
LAYER_1
 62
   250
 10
-47.7213
 20
-120.5076
 30
0.0
  0
VERTEX
  5
2E7
  8
LAYER_1
 62
   250
 10
-48.1374
 20
-116.5644
 30
0.0
  0
VERTEX
  5
2E8
  8
LAYER_1
 62
   250
 10
-48.473
 20
-111.5773
 30
0.0
  0
VERTEX
  5
2E9
  8
LAYER_1
 62
   250
 10
-48.5855
 20
-105.8538
 30
0.0
  0
VERTEX
  5
2EA
  8
LAYER_1
 62
   250
 10
-48.3324
 20
-99.7017
 30
0.0
  0
VERTEX
  5
2EB
  8
LAYER_1
 62
   250
 10
-47.571
 20
-93.4287
 30
0.0
  0
VERTEX
  5
2EC
  8
LAYER_1
 62
   250
 10
-46.159
 20
-87.3425
 30
0.0
  0
VERTEX
  5
2ED
  8
LAYER_1
 62
   250
 10
-44.7127
 20
-83.0451
 30
0.0
  0
VERTEX
  5
2EE
  8
LAYER_1
 62
   250
 10
-43.0508
 20
-78.9048
 30
0.0
  0
VERTEX
  5
2EF
  8
LAYER_1
 62
   250
 10
-41.22
 20
-74.9532
 30
0.0
  0
VERTEX
  5
2F0
  8
LAYER_1
 62
   250
 10
-39.2669
 20
-71.2214
 30
0.0
  0
VERTEX
  5
2F1
  8
LAYER_1
 62
   250
 10
-37.2383
 20
-67.7409
 30
0.0
  0
VERTEX
  5
2F2
  8
LAYER_1
 62
   250
 10
-35.1808
 20
-64.543
 30
0.0
  0
VERTEX
  5
2F3
  8
LAYER_1
 62
   250
 10
-33.1411
 20
-61.659
 30
0.0
  0
VERTEX
  5
2F4
  8
LAYER_1
 62
   250
 10
-31.1659
 20
-59.1203
 30
0.0
  0
VERTEX
  5
2F5
  8
LAYER_1
 62
   250
 10
-30.0966
 20
-57.6646
 30
0.0
  0
VERTEX
  5
2F6
  8
LAYER_1
 62
   250
 10
-29.2197
 20
-56.1866
 30
0.0
  0
VERTEX
  5
2F7
  8
LAYER_1
 62
   250
 10
-28.5191
 20
-54.7274
 30
0.0
  0
VERTEX
  5
2F8
  8
LAYER_1
 62
   250
 10
-27.9794
 20
-53.3282
 30
0.0
  0
VERTEX
  5
2F9
  8
LAYER_1
 62
   250
 10
-27.5845
 20
-52.03
 30
0.0
  0
VERTEX
  5
2FA
  8
LAYER_1
 62
   250
 10
-27.3188
 20
-50.8741
 30
0.0
  0
VERTEX
  5
2FB
  8
LAYER_1
 62
   250
 10
-27.1665
 20
-49.9016
 30
0.0
  0
VERTEX
  5
2FC
  8
LAYER_1
 62
   250
 10
-27.1118
 20
-49.1536
 30
0.0
  0
VERTEX
  5
2FD
  8
LAYER_1
 62
   250
 10
-27.1665
 20
-48.4057
 30
0.0
  0
VERTEX
  5
2FE
  8
LAYER_1
 62
   250
 10
-27.3188
 20
-47.4332
 30
0.0
  0
VERTEX
  5
2FF
  8
LAYER_1
 62
   250
 10
-27.5845
 20
-46.2774
 30
0.0
  0
VERTEX
  5
300
  8
LAYER_1
 62
   250
 10
-27.9794
 20
-44.9792
 30
0.0
  0
VERTEX
  5
301
  8
LAYER_1
 62
   250
 10
-28.5191
 20
-43.58
 30
0.0
  0
VERTEX
  5
302
  8
LAYER_1
 62
   250
 10
-29.2197
 20
-42.1207
 30
0.0
  0
VERTEX
  5
303
  8
LAYER_1
 62
   250
 10
-30.0966
 20
-40.6427
 30
0.0
  0
VERTEX
  5
304
  8
LAYER_1
 62
   250
 10
-31.1659
 20
-39.1869
 30
0.0
  0
VERTEX
  5
305
  8
LAYER_1
 62
   250
 10
-33.1409
 20
-36.6482
 30
0.0
  0
VERTEX
  5
306
  8
LAYER_1
 62
   250
 10
-35.1805
 20
-33.7643
 30
0.0
  0
VERTEX
  5
307
  8
LAYER_1
 62
   250
 10
-37.238
 20
-30.5664
 30
0.0
  0
VERTEX
  5
308
  8
LAYER_1
 62
   250
 10
-39.2667
 20
-27.0859
 30
0.0
  0
VERTEX
  5
309
  8
LAYER_1
 62
   250
 10
-41.2198
 20
-23.3541
 30
0.0
  0
VERTEX
  5
30A
  8
LAYER_1
 62
   250
 10
-43.0507
 20
-19.4024
 30
0.0
  0
VERTEX
  5
30B
  8
LAYER_1
 62
   250
 10
-44.7127
 20
-15.2622
 30
0.0
  0
VERTEX
  5
30C
  8
LAYER_1
 62
   250
 10
-46.159
 20
-10.9647
 30
0.0
  0
VERTEX
  5
30D
  8
LAYER_1
 62
   250
 10
-47.571
 20
-4.8785
 30
0.0
  0
VERTEX
  5
30E
  8
LAYER_1
 62
   250
 10
-48.3324
 20
1.3945
 30
0.0
  0
VERTEX
  5
30F
  8
LAYER_1
 62
   250
 10
-48.5855
 20
7.5466
 30
0.0
  0
VERTEX
  5
310
  8
LAYER_1
 62
   250
 10
-48.473
 20
13.27
 30
0.0
  0
VERTEX
  5
311
  8
LAYER_1
 62
   250
 10
-48.1374
 20
18.2572
 30
0.0
  0
VERTEX
  5
312
  8
LAYER_1
 62
   250
 10
-47.7213
 20
22.2004
 30
0.0
  0
VERTEX
  5
313
  8
LAYER_1
 62
   250
 10
-47.367
 20
24.792
 30
0.0
  0
VERTEX
  5
314
  8
LAYER_1
 62
   250
 10
-47.2173
 20
25.7242
 30
0.0
  0
VERTEX
  5
315
  8
LAYER_1
 62
   250
 10
-43.4193
 20
24.4857
 30
0.0
  0
VERTEX
  5
316
  8
LAYER_1
 62
   250
 10
-39.6074
 20
22.7777
 30
0.0
  0
VERTEX
  5
317
  8
LAYER_1
 62
   250
 10
-35.8923
 20
20.7535
 30
0.0
  0
VERTEX
  5
318
  8
LAYER_1
 62
   250
 10
-32.3844
 20
18.5662
 30
0.0
  0
VERTEX
  5
319
  8
LAYER_1
 62
   250
 10
-29.1942
 20
16.3691
 30
0.0
  0
VERTEX
  5
31A
  8
LAYER_1
 62
   250
 10
-26.4323
 20
14.3156
 30
0.0
  0
VERTEX
  5
31B
  8
LAYER_1
 62
   250
 10
-24.2092
 20
12.5587
 30
0.0
  0
VERTEX
  5
31C
  8
LAYER_1
 62
   250
 10
-22.6354
 20
11.2518
 30
0.0
  0
VERTEX
  5
31D
  8
LAYER_1
 62
   250
 10
-21.0614
 20
12.5587
 30
0.0
  0
VERTEX
  5
31E
  8
LAYER_1
 62
   250
 10
-18.8382
 20
14.3156
 30
0.0
  0
VERTEX
  5
31F
  8
LAYER_1
 62
   250
 10
-16.0762
 20
16.3691
 30
0.0
  0
VERTEX
  5
320
  8
LAYER_1
 62
   250
 10
-12.886
 20
18.5662
 30
0.0
  0
VERTEX
  5
321
  8
LAYER_1
 62
   250
 10
-9.3781
 20
20.7535
 30
0.0
  0
VERTEX
  5
322
  8
LAYER_1
 62
   250
 10
-5.663
 20
22.7777
 30
0.0
  0
VERTEX
  5
323
  8
LAYER_1
 62
   250
 10
-1.8512
 20
24.4857
 30
0.0
  0
VERTEX
  5
324
  8
LAYER_1
 62
   250
 10
1.9468
 20
25.7242
 30
0.0
  0
VERTEX
  5
325
  8
LAYER_1
 62
   250
 10
2.0965
 20
24.792
 30
0.0
  0
VERTEX
  5
326
  8
LAYER_1
 62
   250
 10
2.4508
 20
22.2004
 30
0.0
  0
VERTEX
  5
327
  8
LAYER_1
 62
   250
 10
2.8669
 20
18.2572
 30
0.0
  0
VERTEX
  5
328
  8
LAYER_1
 62
   250
 10
3.2025
 20
13.27
 30
0.0
  0
VERTEX
  5
329
  8
LAYER_1
 62
   250
 10
3.315
 20
7.5466
 30
0.0
  0
VERTEX
  5
32A
  8
LAYER_1
 62
   250
 10
3.0619
 20
1.3945
 30
0.0
  0
VERTEX
  5
32B
  8
LAYER_1
 62
   250
 10
2.3005
 20
-4.8785
 30
0.0
  0
VERTEX
  5
32C
  8
LAYER_1
 62
   250
 10
0.8885
 20
-10.9647
 30
0.0
  0
VERTEX
  5
32D
  8
LAYER_1
 62
   250
 10
-0.5578
 20
-15.2622
 30
0.0
  0
VERTEX
  5
32E
  8
LAYER_1
 62
   250
 10
-2.2197
 20
-19.4024
 30
0.0
  0
VERTEX
  5
32F
  8
LAYER_1
 62
   250
 10
-4.0506
 20
-23.3541
 30
0.0
  0
VERTEX
  5
330
  8
LAYER_1
 62
   250
 10
-6.0037
 20
-27.0859
 30
0.0
  0
VERTEX
  5
331
  8
LAYER_1
 62
   250
 10
-8.0324
 20
-30.5664
 30
0.0
  0
VERTEX
  5
332
  8
LAYER_1
 62
   250
 10
-10.0898
 20
-33.7643
 30
0.0
  0
VERTEX
  5
333
  8
LAYER_1
 62
   250
 10
-12.1295
 20
-36.6482
 30
0.0
  0
VERTEX
  5
334
  8
LAYER_1
 62
   250
 10
-14.1045
 20
-39.1869
 30
0.0
  0
SEQEND
  5
335
  8
LAYER_1
 62
   250
  0
POLYLINE
  5
44
  8
LAYER_1
 62
   250
 66
     1
 10
0.0
 20
0.0
 30
0.0
 70
     1
  0
VERTEX
  5
336
  8
LAYER_1
 62
   250
 10
-16.5202
 20
74.6714
 30
0.0
  0
VERTEX
  5
337
  8
LAYER_1
 62
   250
 10
-28.75
 20
74.6714
 30
0.0
  0
VERTEX
  5
338
  8
LAYER_1
 62
   250
 10
-28.75
 20
35.8659
 30
0.0
  0
VERTEX
  5
339
  8
LAYER_1
 62
   250
 10
-16.5202
 20
35.8659
 30
0.0
  0
VERTEX
  5
33A
  8
LAYER_1
 62
   250
 10
-16.5202
 20
74.6714
 30
0.0
  0
SEQEND
  5
33B
  8
LAYER_1
 62
   250
  0
POLYLINE
  5
45
  8
LAYER_1
 62
   250
 66
     1
 10
0.0
 20
0.0
 30
0.0
 70
     1
  0
VERTEX
  5
33C
  8
LAYER_1
 62
   250
 10
76.4353
 20
-39.1869
 30
0.0
  0
VERTEX
  5
33D
  8
LAYER_1
 62
   250
 10
75.3659
 20
-40.6427
 30
0.0
  0
VERTEX
  5
33E
  8
LAYER_1
 62
   250
 10
74.4889
 20
-42.1207
 30
0.0
  0
VERTEX
  5
33F
  8
LAYER_1
 62
   250
 10
73.7883
 20
-43.58
 30
0.0
  0
VERTEX
  5
340
  8
LAYER_1
 62
   250
 10
73.2486
 20
-44.9792
 30
0.0
  0
VERTEX
  5
341
  8
LAYER_1
 62
   250
 10
72.8537
 20
-46.2774
 30
0.0
  0
VERTEX
  5
342
  8
LAYER_1
 62
   250
 10
72.5881
 20
-47.4332
 30
0.0
  0
VERTEX
  5
343
  8
LAYER_1
 62
   250
 10
72.4358
 20
-48.4057
 30
0.0
  0
VERTEX
  5
344
  8
LAYER_1
 62
   250
 10
72.3812
 20
-49.1536
 30
0.0
  0
VERTEX
  5
345
  8
LAYER_1
 62
   250
 10
72.4358
 20
-49.9016
 30
0.0
  0
VERTEX
  5
346
  8
LAYER_1
 62
   250
 10
72.5881
 20
-50.8741
 30
0.0
  0
VERTEX
  5
347
  8
LAYER_1
 62
   250
 10
72.8537
 20
-52.03
 30
0.0
  0
VERTEX
  5
348
  8
LAYER_1
 62
   250
 10
73.2486
 20
-53.3282
 30
0.0
  0
VERTEX
  5
349
  8
LAYER_1
 62
   250
 10
73.7883
 20
-54.7274
 30
0.0
  0
VERTEX
  5
34A
  8
LAYER_1
 62
   250
 10
74.4889
 20
-56.1866
 30
0.0
  0
VERTEX
  5
34B
  8
LAYER_1
 62
   250
 10
75.3659
 20
-57.6646
 30
0.0
  0
VERTEX
  5
34C
  8
LAYER_1
 62
   250
 10
76.4353
 20
-59.1203
 30
0.0
  0
VERTEX
  5
34D
  8
LAYER_1
 62
   250
 10
78.4104
 20
-61.659
 30
0.0
  0
VERTEX
  5
34E
  8
LAYER_1
 62
   250
 10
80.45
 20
-64.543
 30
0.0
  0
VERTEX
  5
34F
  8
LAYER_1
 62
   250
 10
82.5075
 20
-67.7409
 30
0.0
  0
VERTEX
  5
350
  8
LAYER_1
 62
   250
 10
84.5362
 20
-71.2214
 30
0.0
  0
VERTEX
  5
351
  8
LAYER_1
 62
   250
 10
86.4893
 20
-74.9532
 30
0.0
  0
VERTEX
  5
352
  8
LAYER_1
 62
   250
 10
88.3202
 20
-78.9048
 30
0.0
  0
VERTEX
  5
353
  8
LAYER_1
 62
   250
 10
89.9821
 20
-83.0451
 30
0.0
  0
VERTEX
  5
354
  8
LAYER_1
 62
   250
 10
91.4284
 20
-87.3425
 30
0.0
  0
VERTEX
  5
355
  8
LAYER_1
 62
   250
 10
92.8404
 20
-93.4287
 30
0.0
  0
VERTEX
  5
356
  8
LAYER_1
 62
   250
 10
93.6017
 20
-99.7017
 30
0.0
  0
VERTEX
  5
357
  8
LAYER_1
 62
   250
 10
93.8549
 20
-105.8538
 30
0.0
  0
VERTEX
  5
358
  8
LAYER_1
 62
   250
 10
93.7424
 20
-111.5773
 30
0.0
  0
VERTEX
  5
359
  8
LAYER_1
 62
   250
 10
93.4068
 20
-116.5644
 30
0.0
  0
VERTEX
  5
35A
  8
LAYER_1
 62
   250
 10
92.9907
 20
-120.5076
 30
0.0
  0
VERTEX
  5
35B
  8
LAYER_1
 62
   250
 10
92.6364
 20
-123.0992
 30
0.0
  0
VERTEX
  5
35C
  8
LAYER_1
 62
   250
 10
92.4867
 20
-124.0314
 30
0.0
  0
VERTEX
  5
35D
  8
LAYER_1
 62
   250
 10
88.6886
 20
-122.7929
 30
0.0
  0
VERTEX
  5
35E
  8
LAYER_1
 62
   250
 10
84.8768
 20
-121.0849
 30
0.0
  0
VERTEX
  5
35F
  8
LAYER_1
 62
   250
 10
81.1616
 20
-119.0606
 30
0.0
  0
VERTEX
  5
360
  8
LAYER_1
 62
   250
 10
77.6537
 20
-116.8732
 30
0.0
  0
VERTEX
  5
361
  8
LAYER_1
 62
   250
 10
74.4635
 20
-114.6761
 30
0.0
  0
VERTEX
  5
362
  8
LAYER_1
 62
   250
 10
71.7015
 20
-112.6225
 30
0.0
  0
VERTEX
  5
363
  8
LAYER_1
 62
   250
 10
69.4783
 20
-110.8656
 30
0.0
  0
VERTEX
  5
364
  8
LAYER_1
 62
   250
 10
67.9044
 20
-109.5587
 30
0.0
  0
VERTEX
  5
365
  8
LAYER_1
 62
   250
 10
66.3305
 20
-110.8656
 30
0.0
  0
VERTEX
  5
366
  8
LAYER_1
 62
   250
 10
64.1073
 20
-112.6225
 30
0.0
  0
VERTEX
  5
367
  8
LAYER_1
 62
   250
 10
61.3454
 20
-114.6761
 30
0.0
  0
VERTEX
  5
368
  8
LAYER_1
 62
   250
 10
58.1553
 20
-116.8732
 30
0.0
  0
VERTEX
  5
369
  8
LAYER_1
 62
   250
 10
54.6474
 20
-119.0606
 30
0.0
  0
VERTEX
  5
36A
  8
LAYER_1
 62
   250
 10
50.9324
 20
-121.0849
 30
0.0
  0
VERTEX
  5
36B
  8
LAYER_1
 62
   250
 10
47.1205
 20
-122.7929
 30
0.0
  0
VERTEX
  5
36C
  8
LAYER_1
 62
   250
 10
43.3225
 20
-124.0314
 30
0.0
  0
VERTEX
  5
36D
  8
LAYER_1
 62
   250
 10
43.1728
 20
-123.0992
 30
0.0
  0
VERTEX
  5
36E
  8
LAYER_1
 62
   250
 10
42.8185
 20
-120.5076
 30
0.0
  0
VERTEX
  5
36F
  8
LAYER_1
 62
   250
 10
42.4024
 20
-116.5644
 30
0.0
  0
VERTEX
  5
370
  8
LAYER_1
 62
   250
 10
42.0668
 20
-111.5773
 30
0.0
  0
VERTEX
  5
371
  8
LAYER_1
 62
   250
 10
41.9544
 20
-105.8538
 30
0.0
  0
VERTEX
  5
372
  8
LAYER_1
 62
   250
 10
42.2075
 20
-99.7017
 30
0.0
  0
VERTEX
  5
373
  8
LAYER_1
 62
   250
 10
42.9689
 20
-93.4287
 30
0.0
  0
VERTEX
  5
374
  8
LAYER_1
 62
   250
 10
44.3809
 20
-87.3425
 30
0.0
  0
VERTEX
  5
375
  8
LAYER_1
 62
   250
 10
45.8272
 20
-83.0451
 30
0.0
  0
VERTEX
  5
376
  8
LAYER_1
 62
   250
 10
47.489
 20
-78.9048
 30
0.0
  0
VERTEX
  5
377
  8
LAYER_1
 62
   250
 10
49.3199
 20
-74.9532
 30
0.0
  0
VERTEX
  5
378
  8
LAYER_1
 62
   250
 10
51.2729
 20
-71.2214
 30
0.0
  0
VERTEX
  5
379
  8
LAYER_1
 62
   250
 10
53.3016
 20
-67.7409
 30
0.0
  0
VERTEX
  5
37A
  8
LAYER_1
 62
   250
 10
55.3591
 20
-64.543
 30
0.0
  0
VERTEX
  5
37B
  8
LAYER_1
 62
   250
 10
57.3987
 20
-61.659
 30
0.0
  0
VERTEX
  5
37C
  8
LAYER_1
 62
   250
 10
59.3739
 20
-59.1203
 30
0.0
  0
VERTEX
  5
37D
  8
LAYER_1
 62
   250
 10
60.4432
 20
-57.6646
 30
0.0
  0
VERTEX
  5
37E
  8
LAYER_1
 62
   250
 10
61.3202
 20
-56.1866
 30
0.0
  0
VERTEX
  5
37F
  8
LAYER_1
 62
   250
 10
62.0207
 20
-54.7274
 30
0.0
  0
VERTEX
  5
380
  8
LAYER_1
 62
   250
 10
62.5605
 20
-53.3282
 30
0.0
  0
VERTEX
  5
381
  8
LAYER_1
 62
   250
 10
62.9553
 20
-52.03
 30
0.0
  0
VERTEX
  5
382
  8
LAYER_1
 62
   250
 10
63.2209
 20
-50.8741
 30
0.0
  0
VERTEX
  5
383
  8
LAYER_1
 62
   250
 10
63.3731
 20
-49.9016
 30
0.0
  0
VERTEX
  5
384
  8
LAYER_1
 62
   250
 10
63.4277
 20
-49.1536
 30
0.0
  0
VERTEX
  5
385
  8
LAYER_1
 62
   250
 10
63.3731
 20
-48.4057
 30
0.0
  0
VERTEX
  5
386
  8
LAYER_1
 62
   250
 10
63.2209
 20
-47.4332
 30
0.0
  0
VERTEX
  5
387
  8
LAYER_1
 62
   250
 10
62.9553
 20
-46.2774
 30
0.0
  0
VERTEX
  5
388
  8
LAYER_1
 62
   250
 10
62.5605
 20
-44.9792
 30
0.0
  0
VERTEX
  5
389
  8
LAYER_1
 62
   250
 10
62.0207
 20
-43.58
 30
0.0
  0
VERTEX
  5
38A
  8
LAYER_1
 62
   250
 10
61.3202
 20
-42.1207
 30
0.0
  0
VERTEX
  5
38B
  8
LAYER_1
 62
   250
 10
60.4432
 20
-40.6427
 30
0.0
  0
VERTEX
  5
38C
  8
LAYER_1
 62
   250
 10
59.3739
 20
-39.1869
 30
0.0
  0
VERTEX
  5
38D
  8
LAYER_1
 62
   250
 10
57.3988
 20
-36.6482
 30
0.0
  0
VERTEX
  5
38E
  8
LAYER_1
 62
   250
 10
55.3592
 20
-33.7643
 30
0.0
  0
VERTEX
  5
38F
  8
LAYER_1
 62
   250
 10
53.3017
 20
-30.5664
 30
0.0
  0
VERTEX
  5
390
  8
LAYER_1
 62
   250
 10
51.2731
 20
-27.0859
 30
0.0
  0
VERTEX
  5
391
  8
LAYER_1
 62
   250
 10
49.3199
 20
-23.3541
 30
0.0
  0
VERTEX
  5
392
  8
LAYER_1
 62
   250
 10
47.4891
 20
-19.4024
 30
0.0
  0
VERTEX
  5
393
  8
LAYER_1
 62
   250
 10
45.8272
 20
-15.2622
 30
0.0
  0
VERTEX
  5
394
  8
LAYER_1
 62
   250
 10
44.3809
 20
-10.9647
 30
0.0
  0
VERTEX
  5
395
  8
LAYER_1
 62
   250
 10
42.9689
 20
-4.8785
 30
0.0
  0
VERTEX
  5
396
  8
LAYER_1
 62
   250
 10
42.2075
 20
1.3945
 30
0.0
  0
VERTEX
  5
397
  8
LAYER_1
 62
   250
 10
41.9544
 20
7.5466
 30
0.0
  0
VERTEX
  5
398
  8
LAYER_1
 62
   250
 10
42.0668
 20
13.27
 30
0.0
  0
VERTEX
  5
399
  8
LAYER_1
 62
   250
 10
42.4024
 20
18.2572
 30
0.0
  0
VERTEX
  5
39A
  8
LAYER_1
 62
   250
 10
42.8185
 20
22.2004
 30
0.0
  0
VERTEX
  5
39B
  8
LAYER_1
 62
   250
 10
43.1728
 20
24.792
 30
0.0
  0
VERTEX
  5
39C
  8
LAYER_1
 62
   250
 10
43.3225
 20
25.7242
 30
0.0
  0
VERTEX
  5
39D
  8
LAYER_1
 62
   250
 10
47.1205
 20
24.4857
 30
0.0
  0
VERTEX
  5
39E
  8
LAYER_1
 62
   250
 10
50.9324
 20
22.7777
 30
0.0
  0
VERTEX
  5
39F
  8
LAYER_1
 62
   250
 10
54.6474
 20
20.7535
 30
0.0
  0
VERTEX
  5
3A0
  8
LAYER_1
 62
   250
 10
58.1553
 20
18.5662
 30
0.0
  0
VERTEX
  5
3A1
  8
LAYER_1
 62
   250
 10
61.3454
 20
16.3691
 30
0.0
  0
VERTEX
  5
3A2
  8
LAYER_1
 62
   250
 10
64.1073
 20
14.3156
 30
0.0
  0
VERTEX
  5
3A3
  8
LAYER_1
 62
   250
 10
66.3305
 20
12.5587
 30
0.0
  0
VERTEX
  5
3A4
  8
LAYER_1
 62
   250
 10
67.9044
 20
11.2518
 30
0.0
  0
VERTEX
  5
3A5
  8
LAYER_1
 62
   250
 10
69.4783
 20
12.5587
 30
0.0
  0
VERTEX
  5
3A6
  8
LAYER_1
 62
   250
 10
71.7015
 20
14.3156
 30
0.0
  0
VERTEX
  5
3A7
  8
LAYER_1
 62
   250
 10
74.4635
 20
16.3691
 30
0.0
  0
VERTEX
  5
3A8
  8
LAYER_1
 62
   250
 10
77.6537
 20
18.5662
 30
0.0
  0
VERTEX
  5
3A9
  8
LAYER_1
 62
   250
 10
81.1616
 20
20.7535
 30
0.0
  0
VERTEX
  5
3AA
  8
LAYER_1
 62
   250
 10
84.8768
 20
22.7777
 30
0.0
  0
VERTEX
  5
3AB
  8
LAYER_1
 62
   250
 10
88.6886
 20
24.4857
 30
0.0
  0
VERTEX
  5
3AC
  8
LAYER_1
 62
   250
 10
92.4867
 20
25.7242
 30
0.0
  0
VERTEX
  5
3AD
  8
LAYER_1
 62
   250
 10
92.6364
 20
24.792
 30
0.0
  0
VERTEX
  5
3AE
  8
LAYER_1
 62
   250
 10
92.9907
 20
22.2004
 30
0.0
  0
VERTEX
  5
3AF
  8
LAYER_1
 62
   250
 10
93.4068
 20
18.2572
 30
0.0
  0
VERTEX
  5
3B0
  8
LAYER_1
 62
   250
 10
93.7424
 20
13.27
 30
0.0
  0
VERTEX
  5
3B1
  8
LAYER_1
 62
   250
 10
93.8549
 20
7.5466
 30
0.0
  0
VERTEX
  5
3B2
  8
LAYER_1
 62
   250
 10
93.6017
 20
1.3945
 30
0.0
  0
VERTEX
  5
3B3
  8
LAYER_1
 62
   250
 10
92.8404
 20
-4.8785
 30
0.0
  0
VERTEX
  5
3B4
  8
LAYER_1
 62
   250
 10
91.4284
 20
-10.9647
 30
0.0
  0
VERTEX
  5
3B5
  8
LAYER_1
 62
   250
 10
89.9821
 20
-15.2622
 30
0.0
  0
VERTEX
  5
3B6
  8
LAYER_1
 62
   250
 10
88.3202
 20
-19.4024
 30
0.0
  0
VERTEX
  5
3B7
  8
LAYER_1
 62
   250
 10
86.4893
 20
-23.3541
 30
0.0
  0
VERTEX
  5
3B8
  8
LAYER_1
 62
   250
 10
84.5362
 20
-27.0859
 30
0.0
  0
VERTEX
  5
3B9
  8
LAYER_1
 62
   250
 10
82.5075
 20
-30.5664
 30
0.0
  0
VERTEX
  5
3BA
  8
LAYER_1
 62
   250
 10
80.45
 20
-33.7643
 30
0.0
  0
VERTEX
  5
3BB
  8
LAYER_1
 62
   250
 10
78.4104
 20
-36.6482
 30
0.0
  0
VERTEX
  5
3BC
  8
LAYER_1
 62
   250
 10
76.4353
 20
-39.1869
 30
0.0
  0
SEQEND
  5
3BD
  8
LAYER_1
 62
   250
  0
POLYLINE
  5
46
  8
LAYER_1
 62
   250
 66
     1
 10
0.0
 20
0.0
 30
0.0
 70
     1
  0
VERTEX
  5
3BE
  8
LAYER_1
 62
   250
 10
74.0191
 20
74.6714
 30
0.0
  0
VERTEX
  5
3BF
  8
LAYER_1
 62
   250
 10
61.7894
 20
74.6714
 30
0.0
  0
VERTEX
  5
3C0
  8
LAYER_1
 62
   250
 10
61.7894
 20
35.8659
 30
0.0
  0
VERTEX
  5
3C1
  8
LAYER_1
 62
   250
 10
74.0191
 20
35.8659
 30
0.0
  0
VERTEX
  5
3C2
  8
LAYER_1
 62
   250
 10
74.0191
 20
74.6714
 30
0.0
  0
SEQEND
  5
3C3
  8
LAYER_1
 62
   250
  0
POLYLINE
  5
47
  8
LAYER_1
 62
   250
 66
     1
 10
0.0
 20
0.0
 30
0.0
 70
     1
  0
VERTEX
  5
3C4
  8
LAYER_1
 62
   250
 10
-34.9757
 20
119.2665
 30
0.0
  0
VERTEX
  5
3C5
  8
LAYER_1
 62
   250
 10
-34.9757
 20
119.8574
 30
0.0
  0
VERTEX
  5
3C6
  8
LAYER_1
 62
   250
 10
-32.8387
 20
119.861
 30
0.0
  0
VERTEX
  5
3C7
  8
LAYER_1
 62
   250
 10
-32.8387
 20
117.9895
 30
0.0
  0
VERTEX
  5
3C8
  8
LAYER_1
 62
   250
 10
-33.0865
 20
117.8053
 30
0.0
  0
VERTEX
  5
3C9
  8
LAYER_1
 62
   250
 10
-33.3383
 20
117.6456
 30
0.0
  0
VERTEX
  5
3CA
  8
LAYER_1
 62
   250
 10
-33.5941
 20
117.51
 30
0.0
  0
VERTEX
  5
3CB
  8
LAYER_1
 62
   250
 10
-33.8538
 20
117.3985
 30
0.0
  0
VERTEX
  5
3CC
  8
LAYER_1
 62
   250
 10
-34.1172
 20
117.3121
 30
0.0
  0
VERTEX
  5
3CD
  8
LAYER_1
 62
   250
 10
-34.3841
 20
117.2505
 30
0.0
  0
VERTEX
  5
3CE
  8
LAYER_1
 62
   250
 10
-34.6542
 20
117.2134
 30
0.0
  0
VERTEX
  5
3CF
  8
LAYER_1
 62
   250
 10
-34.9276
 20
117.2011
 30
0.0
  0
VERTEX
  5
3D0
  8
LAYER_1
 62
   250
 10
-35.1114
 20
117.2061
 30
0.0
  0
VERTEX
  5
3D1
  8
LAYER_1
 62
   250
 10
-35.291
 20
117.221
 30
0.0
  0
VERTEX
  5
3D2
  8
LAYER_1
 62
   250
 10
-35.4664
 20
117.2458
 30
0.0
  0
VERTEX
  5
3D3
  8
LAYER_1
 62
   250
 10
-35.6375
 20
117.2806
 30
0.0
  0
VERTEX
  5
3D4
  8
LAYER_1
 62
   250
 10
-35.8043
 20
117.3253
 30
0.0
  0
VERTEX
  5
3D5
  8
LAYER_1
 62
   250
 10
-35.9667
 20
117.3801
 30
0.0
  0
VERTEX
  5
3D6
  8
LAYER_1
 62
   250
 10
-36.1249
 20
117.4448
 30
0.0
  0
VERTEX
  5
3D7
  8
LAYER_1
 62
   250
 10
-36.2786
 20
117.5195
 30
0.0
  0
VERTEX
  5
3D8
  8
LAYER_1
 62
   250
 10
-36.4259
 20
117.6033
 30
0.0
  0
VERTEX
  5
3D9
  8
LAYER_1
 62
   250
 10
-36.5639
 20
117.6961
 30
0.0
  0
VERTEX
  5
3DA
  8
LAYER_1
 62
   250
 10
-36.6925
 20
117.7979
 30
0.0
  0
VERTEX
  5
3DB
  8
LAYER_1
 62
   250
 10
-36.8118
 20
117.9085
 30
0.0
  0
VERTEX
  5
3DC
  8
LAYER_1
 62
   250
 10
-36.9219
 20
118.0281
 30
0.0
  0
VERTEX
  5
3DD
  8
LAYER_1
 62
   250
 10
-37.0226
 20
118.1564
 30
0.0
  0
VERTEX
  5
3DE
  8
LAYER_1
 62
   250
 10
-37.114
 20
118.2935
 30
0.0
  0
VERTEX
  5
3DF
  8
LAYER_1
 62
   250
 10
-37.1962
 20
118.4394
 30
0.0
  0
VERTEX
  5
3E0
  8
LAYER_1
 62
   250
 10
-37.2689
 20
118.5923
 30
0.0
  0
VERTEX
  5
3E1
  8
LAYER_1
 62
   250
 10
-37.3319
 20
118.7496
 30
0.0
  0
VERTEX
  5
3E2
  8
LAYER_1
 62
   250
 10
-37.3852
 20
118.9113
 30
0.0
  0
VERTEX
  5
3E3
  8
LAYER_1
 62
   250
 10
-37.4288
 20
119.0774
 30
0.0
  0
VERTEX
  5
3E4
  8
LAYER_1
 62
   250
 10
-37.4627
 20
119.2479
 30
0.0
  0
VERTEX
  5
3E5
  8
LAYER_1
 62
   250
 10
-37.4869
 20
119.4228
 30
0.0
  0
VERTEX
  5
3E6
  8
LAYER_1
 62
   250
 10
-37.5015
 20
119.6021
 30
0.0
  0
VERTEX
  5
3E7
  8
LAYER_1
 62
   250
 10
-37.5063
 20
119.7858
 30
0.0
  0
VERTEX
  5
3E8
  8
LAYER_1
 62
   250
 10
-37.4869
 20
120.1479
 30
0.0
  0
VERTEX
  5
3E9
  8
LAYER_1
 62
   250
 10
-37.4289
 20
120.4977
 30
0.0
  0
VERTEX
  5
3EA
  8
LAYER_1
 62
   250
 10
-37.3854
 20
120.668
 30
0.0
  0
VERTEX
  5
3EB
  8
LAYER_1
 62
   250
 10
-37.3323
 20
120.8352
 30
0.0
  0
VERTEX
  5
3EC
  8
LAYER_1
 62
   250
 10
-37.2696
 20
120.9993
 30
0.0
  0
VERTEX
  5
3ED
  8
LAYER_1
 62
   250
 10
-37.1973
 20
121.1603
 30
0.0
  0
VERTEX
  5
3EE
  8
LAYER_1
 62
   250
 10
-37.1164
 20
121.3151
 30
0.0
  0
VERTEX
  5
3EF
  8
LAYER_1
 62
   250
 10
-37.0269
 20
121.4595
 30
0.0
  0
VERTEX
  5
3F0
  8
LAYER_1
 62
   250
 10
-36.9288
 20
121.5936
 30
0.0
  0
VERTEX
  5
3F1
  8
LAYER_1
 62
   250
 10
-36.8223
 20
121.7173
 30
0.0
  0
VERTEX
  5
3F2
  8
LAYER_1
 62
   250
 10
-36.7072
 20
121.8308
 30
0.0
  0
VERTEX
  5
3F3
  8
LAYER_1
 62
   250
 10
-36.5838
 20
121.934
 30
0.0
  0
VERTEX
  5
3F4
  8
LAYER_1
 62
   250
 10
-36.4518
 20
122.0269
 30
0.0
  0
VERTEX
  5
3F5
  8
LAYER_1
 62
   250
 10
-36.3115
 20
122.1096
 30
0.0
  0
VERTEX
  5
3F6
  8
LAYER_1
 62
   250
 10
-36.1643
 20
122.1819
 30
0.0
  0
VERTEX
  5
3F7
  8
LAYER_1
 62
   250
 10
-36.0115
 20
122.2446
 30
0.0
  0
VERTEX
  5
3F8
  8
LAYER_1
 62
   250
 10
-35.8532
 20
122.2977
 30
0.0
  0
VERTEX
  5
3F9
  8
LAYER_1
 62
   250
 10
-35.6895
 20
122.3412
 30
0.0
  0
VERTEX
  5
3FA
  8
LAYER_1
 62
   250
 10
-35.5202
 20
122.375
 30
0.0
  0
VERTEX
  5
3FB
  8
LAYER_1
 62
   250
 10
-35.3454
 20
122.3992
 30
0.0
  0
VERTEX
  5
3FC
  8
LAYER_1
 62
   250
 10
-35.1651
 20
122.4138
 30
0.0
  0
VERTEX
  5
3FD
  8
LAYER_1
 62
   250
 10
-34.9793
 20
122.4186
 30
0.0
  0
VERTEX
  5
3FE
  8
LAYER_1
 62
   250
 10
-34.7125
 20
122.4076
 30
0.0
  0
VERTEX
  5
3FF
  8
LAYER_1
 62
   250
 10
-34.4587
 20
122.3744
 30
0.0
  0
VERTEX
  5
400
  8
LAYER_1
 62
   250
 10
-34.2178
 20
122.319
 30
0.0
  0
VERTEX
  5
401
  8
LAYER_1
 62
   250
 10
-33.9901
 20
122.2412
 30
0.0
  0
VERTEX
  5
402
  8
LAYER_1
 62
   250
 10
-33.7808
 20
122.1443
 30
0.0
  0
VERTEX
  5
403
  8
LAYER_1
 62
   250
 10
-33.5955
 20
122.0297
 30
0.0
  0
VERTEX
  5
404
  8
LAYER_1
 62
   250
 10
-33.4341
 20
121.8975
 30
0.0
  0
VERTEX
  5
405
  8
LAYER_1
 62
   250
 10
-33.2969
 20
121.7477
 30
0.0
  0
VERTEX
  5
406
  8
LAYER_1
 62
   250
 10
-33.1786
 20
121.5772
 30
0.0
  0
VERTEX
  5
407
  8
LAYER_1
 62
   250
 10
-33.0754
 20
121.3828
 30
0.0
  0
VERTEX
  5
408
  8
LAYER_1
 62
   250
 10
-32.9873
 20
121.1644
 30
0.0
  0
VERTEX
  5
409
  8
LAYER_1
 62
   250
 10
-32.9139
 20
120.9218
 30
0.0
  0
VERTEX
  5
40A
  8
LAYER_1
 62
   250
 10
-33.5166
 20
120.7562
 30
0.0
  0
VERTEX
  5
40B
  8
LAYER_1
 62
   250
 10
-33.5772
 20
120.9388
 30
0.0
  0
VERTEX
  5
40C
  8
LAYER_1
 62
   250
 10
-33.6444
 20
121.1007
 30
0.0
  0
VERTEX
  5
40D
  8
LAYER_1
 62
   250
 10
-33.7182
 20
121.2419
 30
0.0
  0
VERTEX
  5
40E
  8
LAYER_1
 62
   250
 10
-33.7986
 20
121.3624
 30
0.0
  0
VERTEX
  5
40F
  8
LAYER_1
 62
   250
 10
-33.8922
 20
121.467
 30
0.0
  0
VERTEX
  5
410
  8
LAYER_1
 62
   250
 10
-34.0039
 20
121.5607
 30
0.0
  0
VERTEX
  5
411
  8
LAYER_1
 62
   250
 10
-34.1336
 20
121.6432
 30
0.0
  0
VERTEX
  5
412
  8
LAYER_1
 62
   250
 10
-34.2814
 20
121.7148
 30
0.0
  0
VERTEX
  5
413
  8
LAYER_1
 62
   250
 10
-34.442
 20
121.7728
 30
0.0
  0
VERTEX
  5
414
  8
LAYER_1
 62
   250
 10
-34.6114
 20
121.8143
 30
0.0
  0
VERTEX
  5
415
  8
LAYER_1
 62
   250
 10
-34.7894
 20
121.8393
 30
0.0
  0
VERTEX
  5
416
  8
LAYER_1
 62
   250
 10
-34.9757
 20
121.8476
 30
0.0
  0
VERTEX
  5
417
  8
LAYER_1
 62
   250
 10
-35.1971
 20
121.8388
 30
0.0
  0
VERTEX
  5
418
  8
LAYER_1
 62
   250
 10
-35.4029
 20
121.8125
 30
0.0
  0
VERTEX
  5
419
  8
LAYER_1
 62
   250
 10
-35.5931
 20
121.7688
 30
0.0
  0
VERTEX
  5
41A
  8
LAYER_1
 62
   250
 10
-35.7676
 20
121.7078
 30
0.0
  0
VERTEX
  5
41B
  8
LAYER_1
 62
   250
 10
-35.9267
 20
121.6327
 30
0.0
  0
VERTEX
  5
41C
  8
LAYER_1
 62
   250
 10
-36.0694
 20
121.5466
 30
0.0
  0
VERTEX
  5
41D
  8
LAYER_1
 62
   250
 10
-36.196
 20
121.4494
 30
0.0
  0
VERTEX
  5
41E
  8
LAYER_1
 62
   250
 10
-36.3068
 20
121.3412
 30
0.0
  0
VERTEX
  5
41F
  8
LAYER_1
 62
   250
 10
-36.4033
 20
121.2249
 30
0.0
  0
VERTEX
  5
420
  8
LAYER_1
 62
   250
 10
-36.4885
 20
121.103
 30
0.0
  0
VERTEX
  5
421
  8
LAYER_1
 62
   250
 10
-36.5624
 20
120.9754
 30
0.0
  0
VERTEX
  5
422
  8
LAYER_1
 62
   250
 10
-36.6252
 20
120.8419
 30
0.0
  0
VERTEX
  5
423
  8
LAYER_1
 62
   250
 10
-36.7094
 20
120.6034
 30
0.0
  0
VERTEX
  5
424
  8
LAYER_1
 62
   250
 10
-36.7696
 20
120.3547
 30
0.0
  0
VERTEX
  5
425
  8
LAYER_1
 62
   250
 10
-36.8058
 20
120.0959
 30
0.0
  0
VERTEX
  5
426
  8
LAYER_1
 62
   250
 10
-36.8179
 20
119.8269
 30
0.0
  0
VERTEX
  5
427
  8
LAYER_1
 62
   250
 10
-36.8034
 20
119.5033
 30
0.0
  0
VERTEX
  5
428
  8
LAYER_1
 62
   250
 10
-36.7597
 20
119.2073
 30
0.0
  0
VERTEX
  5
429
  8
LAYER_1
 62
   250
 10
-36.687
 20
118.9389
 30
0.0
  0
VERTEX
  5
42A
  8
LAYER_1
 62
   250
 10
-36.5853
 20
118.6979
 30
0.0
  0
VERTEX
  5
42B
  8
LAYER_1
 62
   250
 10
-36.4558
 20
118.4853
 30
0.0
  0
VERTEX
  5
42C
  8
LAYER_1
 62
   250
 10
-36.2998
 20
118.3021
 30
0.0
  0
VERTEX
  5
42D
  8
LAYER_1
 62
   250
 10
-36.1174
 20
118.1482
 30
0.0
  0
VERTEX
  5
42E
  8
LAYER_1
 62
   250
 10
-35.9086
 20
118.0235
 30
0.0
  0
VERTEX
  5
42F
  8
LAYER_1
 62
   250
 10
-35.6832
 20
117.9271
 30
0.0
  0
VERTEX
  5
430
  8
LAYER_1
 62
   250
 10
-35.4511
 20
117.8581
 30
0.0
  0
VERTEX
  5
431
  8
LAYER_1
 62
   250
 10
-35.2122
 20
117.8166
 30
0.0
  0
VERTEX
  5
432
  8
LAYER_1
 62
   250
 10
-34.9663
 20
117.8027
 30
0.0
  0
VERTEX
  5
433
  8
LAYER_1
 62
   250
 10
-34.7502
 20
117.8132
 30
0.0
  0
VERTEX
  5
434
  8
LAYER_1
 62
   250
 10
-34.5371
 20
117.8448
 30
0.0
  0
VERTEX
  5
435
  8
LAYER_1
 62
   250
 10
-34.3268
 20
117.8973
 30
0.0
  0
VERTEX
  5
436
  8
LAYER_1
 62
   250
 10
-34.1193
 20
117.9707
 30
0.0
  0
VERTEX
  5
437
  8
LAYER_1
 62
   250
 10
-33.925
 20
118.055
 30
0.0
  0
VERTEX
  5
438
  8
LAYER_1
 62
   250
 10
-33.756
 20
118.1425
 30
0.0
  0
VERTEX
  5
439
  8
LAYER_1
 62
   250
 10
-33.6121
 20
118.233
 30
0.0
  0
VERTEX
  5
43A
  8
LAYER_1
 62
   250
 10
-33.4931
 20
118.3266
 30
0.0
  0
VERTEX
  5
43B
  8
LAYER_1
 62
   250
 10
-33.4931
 20
119.2665
 30
0.0
  0
VERTEX
  5
43C
  8
LAYER_1
 62
   250
 10
-34.9757
 20
119.2665
 30
0.0
  0
SEQEND
  5
43D
  8
LAYER_1
 62
   250
  0
POLYLINE
  5
48
  8
LAYER_1
 62
   250
 66
     1
 10
0.0
 20
0.0
 30
0.0
 70
     1
  0
VERTEX
  5
43E
  8
LAYER_1
 62
   250
 10
-31.2257
 20
121.6197
 30
0.0
  0
VERTEX
  5
43F
  8
LAYER_1
 62
   250
 10
-31.2257
 20
122.3328
 30
0.0
  0
VERTEX
  5
440
  8
LAYER_1
 62
   250
 10
-30.6054
 20
122.3328
 30
0.0
  0
VERTEX
  5
441
  8
LAYER_1
 62
   250
 10
-30.6054
 20
121.6197
 30
0.0
  0
VERTEX
  5
442
  8
LAYER_1
 62
   250
 10
-31.2257
 20
121.6197
 30
0.0
  0
SEQEND
  5
443
  8
LAYER_1
 62
   250
  0
POLYLINE
  5
49
  8
LAYER_1
 62
   250
 66
     1
 10
0.0
 20
0.0
 30
0.0
 70
     1
  0
VERTEX
  5
444
  8
LAYER_1
 62
   250
 10
-31.2257
 20
117.2869
 30
0.0
  0
VERTEX
  5
445
  8
LAYER_1
 62
   250
 10
-31.2257
 20
120.9418
 30
0.0
  0
VERTEX
  5
446
  8
LAYER_1
 62
   250
 10
-30.6054
 20
120.9418
 30
0.0
  0
VERTEX
  5
447
  8
LAYER_1
 62
   250
 10
-30.6054
 20
117.2869
 30
0.0
  0
VERTEX
  5
448
  8
LAYER_1
 62
   250
 10
-31.2257
 20
117.2869
 30
0.0
  0
SEQEND
  5
449
  8
LAYER_1
 62
   250
  0
POLYLINE
  5
4A
  8
LAYER_1
 62
   250
 66
     1
 10
0.0
 20
0.0
 30
0.0
 70
     1
  0
VERTEX
  5
44A
  8
LAYER_1
 62
   250
 10
-28.7397
 20
117.2869
 30
0.0
  0
VERTEX
  5
44B
  8
LAYER_1
 62
   250
 10
-28.7397
 20
120.4601
 30
0.0
  0
VERTEX
  5
44C
  8
LAYER_1
 62
   250
 10
-29.286
 20
120.4601
 30
0.0
  0
VERTEX
  5
44D
  8
LAYER_1
 62
   250
 10
-29.286
 20
120.9418
 30
0.0
  0
VERTEX
  5
44E
  8
LAYER_1
 62
   250
 10
-28.7397
 20
120.9418
 30
0.0
  0
VERTEX
  5
44F
  8
LAYER_1
 62
   250
 10
-28.7397
 20
121.3307
 30
0.0
  0
VERTEX
  5
450
  8
LAYER_1
 62
   250
 10
-28.7355
 20
121.5031
 30
0.0
  0
VERTEX
  5
451
  8
LAYER_1
 62
   250
 10
-28.7231
 20
121.652
 30
0.0
  0
VERTEX
  5
452
  8
LAYER_1
 62
   250
 10
-28.7025
 20
121.7771
 30
0.0
  0
VERTEX
  5
453
  8
LAYER_1
 62
   250
 10
-28.6739
 20
121.8781
 30
0.0
  0
VERTEX
  5
454
  8
LAYER_1
 62
   250
 10
-28.6206
 20
121.9931
 30
0.0
  0
VERTEX
  5
455
  8
LAYER_1
 62
   250
 10
-28.5504
 20
122.0967
 30
0.0
  0
VERTEX
  5
456
  8
LAYER_1
 62
   250
 10
-28.4633
 20
122.1888
 30
0.0
  0
VERTEX
  5
457
  8
LAYER_1
 62
   250
 10
-28.3591
 20
122.2694
 30
0.0
  0
VERTEX
  5
458
  8
LAYER_1
 62
   250
 10
-28.2351
 20
122.3348
 30
0.0
  0
VERTEX
  5
459
  8
LAYER_1
 62
   250
 10
-28.0884
 20
122.3814
 30
0.0
  0
VERTEX
  5
45A
  8
LAYER_1
 62
   250
 10
-27.9191
 20
122.4093
 30
0.0
  0
VERTEX
  5
45B
  8
LAYER_1
 62
   250
 10
-27.727
 20
122.4186
 30
0.0
  0
VERTEX
  5
45C
  8
LAYER_1
 62
   250
 10
-27.149
 20
122.3563
 30
0.0
  0
VERTEX
  5
45D
  8
LAYER_1
 62
   250
 10
-27.2418
 20
121.8159
 30
0.0
  0
VERTEX
  5
45E
  8
LAYER_1
 62
   250
 10
-27.6072
 20
121.8511
 30
0.0
  0
VERTEX
  5
45F
  8
LAYER_1
 62
   250
 10
-27.7378
 20
121.8436
 30
0.0
  0
VERTEX
  5
460
  8
LAYER_1
 62
   250
 10
-27.8477
 20
121.821
 30
0.0
  0
VERTEX
  5
461
  8
LAYER_1
 62
   250
 10
-27.9369
 20
121.7832
 30
0.0
  0
VERTEX
  5
462
  8
LAYER_1
 62
   250
 10
-28.0054
 20
121.7301
 30
0.0
  0
VERTEX
  5
463
  8
LAYER_1
 62
   250
 10
-28.057
 20
121.657
 30
0.0
  0
VERTEX
  5
464
  8
LAYER_1
 62
   250
 10
-28.0937
 20
121.5574
 30
0.0
  0
VERTEX
  5
465
  8
LAYER_1
 62
   250
 10
-28.1156
 20
121.4314
 30
0.0
  0
VERTEX
  5
466
  8
LAYER_1
 62
   250
 10
-28.1229
 20
121.279
 30
0.0
  0
VERTEX
  5
467
  8
LAYER_1
 62
   250
 10
-28.1229
 20
120.9418
 30
0.0
  0
VERTEX
  5
468
  8
LAYER_1
 62
   250
 10
-27.411
 20
120.9418
 30
0.0
  0
VERTEX
  5
469
  8
LAYER_1
 62
   250
 10
-27.411
 20
120.4601
 30
0.0
  0
VERTEX
  5
46A
  8
LAYER_1
 62
   250
 10
-28.1229
 20
120.4601
 30
0.0
  0
VERTEX
  5
46B
  8
LAYER_1
 62
   250
 10
-28.1229
 20
117.2869
 30
0.0
  0
VERTEX
  5
46C
  8
LAYER_1
 62
   250
 10
-28.7397
 20
117.2869
 30
0.0
  0
SEQEND
  5
46D
  8
LAYER_1
 62
   250
  0
POLYLINE
  5
4B
  8
LAYER_1
 62
   250
 66
     1
 10
0.0
 20
0.0
 30
0.0
 70
     1
  0
VERTEX
  5
46E
  8
LAYER_1
 62
   250
 10
-25.012
 20
117.8414
 30
0.0
  0
VERTEX
  5
46F
  8
LAYER_1
 62
   250
 10
-24.9227
 20
117.2939
 30
0.0
  0
VERTEX
  5
470
  8
LAYER_1
 62
   250
 10
-25.3903
 20
117.2387
 30
0.0
  0
VERTEX
  5
471
  8
LAYER_1
 62
   250
 10
-25.5498
 20
117.2453
 30
0.0
  0
VERTEX
  5
472
  8
LAYER_1
 62
   250
 10
-25.6902
 20
117.2653
 30
0.0
  0
VERTEX
  5
473
  8
LAYER_1
 62
   250
 10
-25.8116
 20
117.2987
 30
0.0
  0
VERTEX
  5
474
  8
LAYER_1
 62
   250
 10
-25.9143
 20
117.3456
 30
0.0
  0
VERTEX
  5
475
  8
LAYER_1
 62
   250
 10
-26.0
 20
117.4029
 30
0.0
  0
VERTEX
  5
476
  8
LAYER_1
 62
   250
 10
-26.072
 20
117.4688
 30
0.0
  0
VERTEX
  5
477
  8
LAYER_1
 62
   250
 10
-26.1304
 20
117.5434
 30
0.0
  0
VERTEX
  5
478
  8
LAYER_1
 62
   250
 10
-26.1751
 20
117.6264
 30
0.0
  0
VERTEX
  5
479
  8
LAYER_1
 62
   250
 10
-26.2083
 20
117.737
 30
0.0
  0
VERTEX
  5
47A
  8
LAYER_1
 62
   250
 10
-26.2322
 20
117.8958
 30
0.0
  0
VERTEX
  5
47B
  8
LAYER_1
 62
   250
 10
-26.2467
 20
118.1026
 30
0.0
  0
VERTEX
  5
47C
  8
LAYER_1
 62
   250
 10
-26.2515
 20
118.3572
 30
0.0
  0
VERTEX
  5
47D
  8
LAYER_1
 62
   250
 10
-26.2515
 20
120.4601
 30
0.0
  0
VERTEX
  5
47E
  8
LAYER_1
 62
   250
 10
-26.7061
 20
120.4601
 30
0.0
  0
VERTEX
  5
47F
  8
LAYER_1
 62
   250
 10
-26.7061
 20
120.9418
 30
0.0
  0
VERTEX
  5
480
  8
LAYER_1
 62
   250
 10
-26.2515
 20
120.9418
 30
0.0
  0
VERTEX
  5
481
  8
LAYER_1
 62
   250
 10
-26.2515
 20
121.8476
 30
0.0
  0
VERTEX
  5
482
  8
LAYER_1
 62
   250
 10
-25.6347
 20
122.2189
 30
0.0
  0
VERTEX
  5
483
  8
LAYER_1
 62
   250
 10
-25.6347
 20
120.9418
 30
0.0
  0
VERTEX
  5
484
  8
LAYER_1
 62
   250
 10
-25.012
 20
120.9418
 30
0.0
  0
VERTEX
  5
485
  8
LAYER_1
 62
   250
 10
-25.012
 20
120.4601
 30
0.0
  0
VERTEX
  5
486
  8
LAYER_1
 62
   250
 10
-25.6347
 20
120.4601
 30
0.0
  0
VERTEX
  5
487
  8
LAYER_1
 62
   250
 10
-25.6347
 20
118.3231
 30
0.0
  0
VERTEX
  5
488
  8
LAYER_1
 62
   250
 10
-25.603
 20
117.9824
 30
0.0
  0
VERTEX
  5
489
  8
LAYER_1
 62
   250
 10
-25.4961
 20
117.8614
 30
0.0
  0
VERTEX
  5
48A
  8
LAYER_1
 62
   250
 10
-25.2846
 20
117.8167
 30
0.0
  0
VERTEX
  5
48B
  8
LAYER_1
 62
   250
 10
-25.012
 20
117.8414
 30
0.0
  0
SEQEND
  5
48C
  8
LAYER_1
 62
   250
  0
POLYLINE
  5
4C
  8
LAYER_1
 62
   250
 66
     1
 10
0.0
 20
0.0
 30
0.0
 70
     1
  0
VERTEX
  5
48D
  8
LAYER_1
 62
   250
 10
-20.4385
 20
117.2869
 30
0.0
  0
VERTEX
  5
48E
  8
LAYER_1
 62
   250
 10
-20.4385
 20
122.3328
 30
0.0
  0
VERTEX
  5
48F
  8
LAYER_1
 62
   250
 10
-18.5447
 20
122.3328
 30
0.0
  0
VERTEX
  5
490
  8
LAYER_1
 62
   250
 10
-18.27
 20
122.3231
 30
0.0
  0
VERTEX
  5
491
  8
LAYER_1
 62
   250
 10
-18.024
 20
122.2943
 30
0.0
  0
VERTEX
  5
492
  8
LAYER_1
 62
   250
 10
-17.8066
 20
122.2466
 30
0.0
  0
VERTEX
  5
493
  8
LAYER_1
 62
   250
 10
-17.6178
 20
122.1801
 30
0.0
  0
VERTEX
  5
494
  8
LAYER_1
 62
   250
 10
-17.4521
 20
122.0931
 30
0.0
  0
VERTEX
  5
495
  8
LAYER_1
 62
   250
 10
-17.3057
 20
121.9854
 30
0.0
  0
VERTEX
  5
496
  8
LAYER_1
 62
   250
 10
-17.1785
 20
121.8569
 30
0.0
  0
VERTEX
  5
497
  8
LAYER_1
 62
   250
 10
-17.0703
 20
121.7078
 30
0.0
  0
VERTEX
  5
498
  8
LAYER_1
 62
   250
 10
-16.9838
 20
121.5472
 30
0.0
  0
VERTEX
  5
499
  8
LAYER_1
 62
   250
 10
-16.9217
 20
121.3827
 30
0.0
  0
VERTEX
  5
49A
  8
LAYER_1
 62
   250
 10
-16.8843
 20
121.2142
 30
0.0
  0
VERTEX
  5
49B
  8
LAYER_1
 62
   250
 10
-16.8718
 20
121.0417
 30
0.0
  0
VERTEX
  5
49C
  8
LAYER_1
 62
   250
 10
-16.8828
 20
120.8827
 30
0.0
  0
VERTEX
  5
49D
  8
LAYER_1
 62
   250
 10
-16.9158
 20
120.7281
 30
0.0
  0
VERTEX
  5
49E
  8
LAYER_1
 62
   250
 10
-16.9709
 20
120.5782
 30
0.0
  0
VERTEX
  5
49F
  8
LAYER_1
 62
   250
 10
-17.048
 20
120.4331
 30
0.0
  0
VERTEX
  5
4A0
  8
LAYER_1
 62
   250
 10
-17.1466
 20
120.2972
 30
0.0
  0
VERTEX
  5
4A1
  8
LAYER_1
 62
   250
 10
-17.268
 20
120.175
 30
0.0
  0
VERTEX
  5
4A2
  8
LAYER_1
 62
   250
 10
-17.4118
 20
120.0664
 30
0.0
  0
VERTEX
  5
4A3
  8
LAYER_1
 62
   250
 10
-17.5778
 20
119.9714
 30
0.0
  0
VERTEX
  5
4A4
  8
LAYER_1
 62
   250
 10
-17.3621
 20
119.8926
 30
0.0
  0
VERTEX
  5
4A5
  8
LAYER_1
 62
   250
 10
-17.1731
 20
119.79
 30
0.0
  0
VERTEX
  5
4A6
  8
LAYER_1
 62
   250
 10
-17.0105
 20
119.664
 30
0.0
  0
VERTEX
  5
4A7
  8
LAYER_1
 62
   250
 10
-16.8741
 20
119.5144
 30
0.0
  0
VERTEX
  5
4A8
  8
LAYER_1
 62
   250
 10
-16.7662
 20
119.345
 30
0.0
  0
VERTEX
  5
4A9
  8
LAYER_1
 62
   250
 10
-16.6891
 20
119.1611
 30
0.0
  0
VERTEX
  5
4AA
  8
LAYER_1
 62
   250
 10
-16.6428
 20
118.9626
 30
0.0
  0
VERTEX
  5
4AB
  8
LAYER_1
 62
   250
 10
-16.6274
 20
118.7496
 30
0.0
  0
VERTEX
  5
4AC
  8
LAYER_1
 62
   250
 10
-16.6369
 20
118.5755
 30
0.0
  0
VERTEX
  5
4AD
  8
LAYER_1
 62
   250
 10
-16.6651
 20
118.4077
 30
0.0
  0
VERTEX
  5
4AE
  8
LAYER_1
 62
   250
 10
-16.7122
 20
118.246
 30
0.0
  0
VERTEX
  5
4AF
  8
LAYER_1
 62
   250
 10
-16.7778
 20
118.0905
 30
0.0
  0
VERTEX
  5
4B0
  8
LAYER_1
 62
   250
 10
-16.8571
 20
117.9468
 30
0.0
  0
VERTEX
  5
4B1
  8
LAYER_1
 62
   250
 10
-16.9452
 20
117.8207
 30
0.0
  0
VERTEX
  5
4B2
  8
LAYER_1
 62
   250
 10
-17.0421
 20
117.712
 30
0.0
  0
VERTEX
  5
4B3
  8
LAYER_1
 62
   250
 10
-17.1478
 20
117.6206
 30
0.0
  0
VERTEX
  5
4B4
  8
LAYER_1
 62
   250
 10
-17.265
 20
117.543
 30
0.0
  0
VERTEX
  5
4B5
  8
LAYER_1
 62
   250
 10
-17.3962
 20
117.4758
 30
0.0
  0
VERTEX
  5
4B6
  8
LAYER_1
 62
   250
 10
-17.5412
 20
117.4187
 30
0.0
  0
VERTEX
  5
4B7
  8
LAYER_1
 62
   250
 10
-17.7
 20
117.3715
 30
0.0
  0
VERTEX
  5
4B8
  8
LAYER_1
 62
   250
 10
-17.8751
 20
117.3345
 30
0.0
  0
VERTEX
  5
4B9
  8
LAYER_1
 62
   250
 10
-18.0692
 20
117.3081
 30
0.0
  0
VERTEX
  5
4BA
  8
LAYER_1
 62
   250
 10
-18.2822
 20
117.2922
 30
0.0
  0
VERTEX
  5
4BB
  8
LAYER_1
 62
   250
 10
-18.5142
 20
117.2869
 30
0.0
  0
VERTEX
  5
4BC
  8
LAYER_1
 62
   250
 10
-20.4385
 20
117.2869
 30
0.0
  0
SEQEND
  5
4BD
  8
LAYER_1
 62
   250
  0
POLYLINE
  5
4D
  8
LAYER_1
 62
   250
 66
     1
 10
0.0
 20
0.0
 30
0.0
 70
     1
  0
VERTEX
  5
4BE
  8
LAYER_1
 62
   250
 10
-19.7701
 20
120.2122
 30
0.0
  0
VERTEX
  5
4BF
  8
LAYER_1
 62
   250
 10
-18.6786
 20
120.2122
 30
0.0
  0
VERTEX
  5
4C0
  8
LAYER_1
 62
   250
 10
-18.4729
 20
120.2159
 30
0.0
  0
VERTEX
  5
4C1
  8
LAYER_1
 62
   250
 10
-18.2982
 20
120.2271
 30
0.0
  0
VERTEX
  5
4C2
  8
LAYER_1
 62
   250
 10
-18.1544
 20
120.2454
 30
0.0
  0
VERTEX
  5
4C3
  8
LAYER_1
 62
   250
 10
-18.0419
 20
120.271
 30
0.0
  0
VERTEX
  5
4C4
  8
LAYER_1
 62
   250
 10
-17.9227
 20
120.3151
 30
0.0
  0
VERTEX
  5
4C5
  8
LAYER_1
 62
   250
 10
-17.8191
 20
120.3716
 30
0.0
  0
VERTEX
  5
4C6
  8
LAYER_1
 62
   250
 10
-17.7311
 20
120.4407
 30
0.0
  0
VERTEX
  5
4C7
  8
LAYER_1
 62
   250
 10
-17.6589
 20
120.5224
 30
0.0
  0
VERTEX
  5
4C8
  8
LAYER_1
 62
   250
 10
-17.6025
 20
120.616
 30
0.0
  0
VERTEX
  5
4C9
  8
LAYER_1
 62
   250
 10
-17.5621
 20
120.7207
 30
0.0
  0
VERTEX
  5
4CA
  8
LAYER_1
 62
   250
 10
-17.5378
 20
120.8363
 30
0.0
  0
VERTEX
  5
4CB
  8
LAYER_1
 62
   250
 10
-17.5297
 20
120.963
 30
0.0
  0
VERTEX
  5
4CC
  8
LAYER_1
 62
   250
 10
-17.5372
 20
121.0845
 30
0.0
  0
VERTEX
  5
4CD
  8
LAYER_1
 62
   250
 10
-17.5596
 20
121.1988
 30
0.0
  0
VERTEX
  5
4CE
  8
LAYER_1
 62
   250
 10
-17.5971
 20
121.3056
 30
0.0
  0
VERTEX
  5
4CF
  8
LAYER_1
 62
   250
 10
-17.6495
 20
121.4047
 30
0.0
  0
VERTEX
  5
4D0
  8
LAYER_1
 62
   250
 10
-17.7167
 20
121.493
 30
0.0
  0
VERTEX
  5
4D1
  8
LAYER_1
 62
   250
 10
-17.7965
 20
121.5661
 30
0.0
  0
VERTEX
  5
4D2
  8
LAYER_1
 62
   250
 10
-17.8889
 20
121.6239
 30
0.0
  0
VERTEX
  5
4D3
  8
LAYER_1
 62
   250
 10
-17.9937
 20
121.6667
 30
0.0
  0
VERTEX
  5
4D4
  8
LAYER_1
 62
   250
 10
-18.1256
 20
121.6975
 30
0.0
  0
VERTEX
  5
4D5
  8
LAYER_1
 62
   250
 10
-18.2977
 20
121.7196
 30
0.0
  0
VERTEX
  5
4D6
  8
LAYER_1
 62
   250
 10
-18.5098
 20
121.7328
 30
0.0
  0
VERTEX
  5
4D7
  8
LAYER_1
 62
   250
 10
-18.7621
 20
121.7372
 30
0.0
  0
VERTEX
  5
4D8
  8
LAYER_1
 62
   250
 10
-19.7701
 20
121.7372
 30
0.0
  0
VERTEX
  5
4D9
  8
LAYER_1
 62
   250
 10
-19.7701
 20
120.2122
 30
0.0
  0
SEQEND
  5
4DA
  8
LAYER_1
 62
   250
  0
POLYLINE
  5
4E
  8
LAYER_1
 62
   250
 66
     1
 10
0.0
 20
0.0
 30
0.0
 70
     1
  0
VERTEX
  5
4DB
  8
LAYER_1
 62
   250
 10
-19.7701
 20
117.8825
 30
0.0
  0
VERTEX
  5
4DC
  8
LAYER_1
 62
   250
 10
-18.5142
 20
117.8825
 30
0.0
  0
VERTEX
  5
4DD
  8
LAYER_1
 62
   250
 10
-18.0595
 20
117.906
 30
0.0
  0
VERTEX
  5
4DE
  8
LAYER_1
 62
   250
 10
-17.8479
 20
117.9617
 30
0.0
  0
VERTEX
  5
4DF
  8
LAYER_1
 62
   250
 10
-17.6742
 20
118.0447
 30
0.0
  0
VERTEX
  5
4E0
  8
LAYER_1
 62
   250
 10
-17.6002
 20
118.098
 30
0.0
  0
VERTEX
  5
4E1
  8
LAYER_1
 62
   250
 10
-17.5331
 20
118.1625
 30
0.0
  0
VERTEX
  5
4E2
  8
LAYER_1
 62
   250
 10
-17.4728
 20
118.238
 30
0.0
  0
VERTEX
  5
4E3
  8
LAYER_1
 62
   250
 10
-17.4192
 20
118.3243
 30
0.0
  0
VERTEX
  5
4E4
  8
LAYER_1
 62
   250
 10
-17.3758
 20
118.4201
 30
0.0
  0
VERTEX
  5
4E5
  8
LAYER_1
 62
   250
 10
-17.3446
 20
118.5228
 30
0.0
  0
VERTEX
  5
4E6
  8
LAYER_1
 62
   250
 10
-17.3257
 20
118.6326
 30
0.0
  0
VERTEX
  5
4E7
  8
LAYER_1
 62
   250
 10
-17.3194
 20
118.7496
 30
0.0
  0
VERTEX
  5
4E8
  8
LAYER_1
 62
   250
 10
-17.3284
 20
118.8859
 30
0.0
  0
VERTEX
  5
4E9
  8
LAYER_1
 62
   250
 10
-17.3555
 20
119.0131
 30
0.0
  0
VERTEX
  5
4EA
  8
LAYER_1
 62
   250
 10
-17.4007
 20
119.1313
 30
0.0
  0
VERTEX
  5
4EB
  8
LAYER_1
 62
   250
 10
-17.4639
 20
119.2406
 30
0.0
  0
VERTEX
  5
4EC
  8
LAYER_1
 62
   250
 10
-17.5432
 20
119.3369
 30
0.0
  0
VERTEX
  5
4ED
  8
LAYER_1
 62
   250
 10
-17.6366
 20
119.4178
 30
0.0
  0
VERTEX
  5
4EE
  8
LAYER_1
 62
   250
 10
-17.7441
 20
119.4832
 30
0.0
  0
VERTEX
  5
4EF
  8
LAYER_1
 62
   250
 10
-17.8657
 20
119.5332
 30
0.0
  0
VERTEX
  5
4F0
  8
LAYER_1
 62
   250
 10
-18.0077
 20
119.5695
 30
0.0
  0
VERTEX
  5
4F1
  8
LAYER_1
 62
   250
 10
-18.1782
 20
119.5956
 30
0.0
  0
VERTEX
  5
4F2
  8
LAYER_1
 62
   250
 10
-18.3768
 20
119.6113
 30
0.0
  0
VERTEX
  5
4F3
  8
LAYER_1
 62
   250
 10
-18.6035
 20
119.6166
 30
0.0
  0
VERTEX
  5
4F4
  8
LAYER_1
 62
   250
 10
-19.7701
 20
119.6166
 30
0.0
  0
VERTEX
  5
4F5
  8
LAYER_1
 62
   250
 10
-19.7701
 20
117.8825
 30
0.0
  0
SEQEND
  5
4F6
  8
LAYER_1
 62
   250
  0
POLYLINE
  5
4F
  8
LAYER_1
 62
   250
 66
     1
 10
0.0
 20
0.0
 30
0.0
 70
     1
  0
VERTEX
  5
4F7
  8
LAYER_1
 62
   250
 10
-15.314
 20
119.1149
 30
0.0
  0
VERTEX
  5
4F8
  8
LAYER_1
 62
   250
 10
-15.3052
 20
119.3605
 30
0.0
  0
VERTEX
  5
4F9
  8
LAYER_1
 62
   250
 10
-15.2787
 20
119.5896
 30
0.0
  0
VERTEX
  5
4FA
  8
LAYER_1
 62
   250
 10
-15.2346
 20
119.8023
 30
0.0
  0
VERTEX
  5
4FB
  8
LAYER_1
 62
   250
 10
-15.1729
 20
119.9985
 30
0.0
  0
VERTEX
  5
4FC
  8
LAYER_1
 62
   250
 10
-15.0934
 20
120.1783
 30
0.0
  0
VERTEX
  5
4FD
  8
LAYER_1
 62
   250
 10
-14.9963
 20
120.3416
 30
0.0
  0
VERTEX
  5
4FE
  8
LAYER_1
 62
   250
 10
-14.8815
 20
120.4884
 30
0.0
  0
VERTEX
  5
4FF
  8
LAYER_1
 62
   250
 10
-14.7489
 20
120.6187
 30
0.0
  0
VERTEX
  5
500
  8
LAYER_1
 62
   250
 10
-14.628
 20
120.7137
 30
0.0
  0
VERTEX
  5
501
  8
LAYER_1
 62
   250
 10
-14.5006
 20
120.7962
 30
0.0
  0
VERTEX
  5
502
  8
LAYER_1
 62
   250
 10
-14.3668
 20
120.8661
 30
0.0
  0
VERTEX
  5
503
  8
LAYER_1
 62
   250
 10
-14.2264
 20
120.9233
 30
0.0
  0
VERTEX
  5
504
  8
LAYER_1
 62
   250
 10
-14.0795
 20
120.9678
 30
0.0
  0
VERTEX
  5
505
  8
LAYER_1
 62
   250
 10
-13.9261
 20
120.9997
 30
0.0
  0
VERTEX
  5
506
  8
LAYER_1
 62
   250
 10
-13.7663
 20
121.0188
 30
0.0
  0
VERTEX
  5
507
  8
LAYER_1
 62
   250
 10
-13.5999
 20
121.0252
 30
0.0
  0
VERTEX
  5
508
  8
LAYER_1
 62
   250
 10
-13.4156
 20
121.0175
 30
0.0
  0
VERTEX
  5
509
  8
LAYER_1
 62
   250
 10
-13.24
 20
120.9943
 30
0.0
  0
VERTEX
  5
50A
  8
LAYER_1
 62
   250
 10
-13.073
 20
120.9557
 30
0.0
  0
VERTEX
  5
50B
  8
LAYER_1
 62
   250
 10
-12.9146
 20
120.9017
 30
0.0
  0
VERTEX
  5
50C
  8
LAYER_1
 62
   250
 10
-12.7648
 20
120.8322
 30
0.0
  0
VERTEX
  5
50D
  8
LAYER_1
 62
   250
 10
-12.6237
 20
120.7471
 30
0.0
  0
VERTEX
  5
50E
  8
LAYER_1
 62
   250
 10
-12.4912
 20
120.6466
 30
0.0
  0
VERTEX
  5
50F
  8
LAYER_1
 62
   250
 10
-12.3675
 20
120.5306
 30
0.0
  0
VERTEX
  5
510
  8
LAYER_1
 62
   250
 10
-12.2552
 20
120.4014
 30
0.0
  0
VERTEX
  5
511
  8
LAYER_1
 62
   250
 10
-12.158
 20
120.2603
 30
0.0
  0
VERTEX
  5
512
  8
LAYER_1
 62
   250
 10
-12.0758
 20
120.1075
 30
0.0
  0
VERTEX
  5
513
  8
LAYER_1
 62
   250
 10
-12.0086
 20
119.9429
 30
0.0
  0
VERTEX
  5
514
  8
LAYER_1
 62
   250
 10
-11.9564
 20
119.7665
 30
0.0
  0
VERTEX
  5
515
  8
LAYER_1
 62
   250
 10
-11.9192
 20
119.5783
 30
0.0
  0
VERTEX
  5
516
  8
LAYER_1
 62
   250
 10
-11.8968
 20
119.3784
 30
0.0
  0
VERTEX
  5
517
  8
LAYER_1
 62
   250
 10
-11.8894
 20
119.1666
 30
0.0
  0
VERTEX
  5
518
  8
LAYER_1
 62
   250
 10
-11.9026
 20
118.8322
 30
0.0
  0
VERTEX
  5
519
  8
LAYER_1
 62
   250
 10
-11.9423
 20
118.5358
 30
0.0
  0
VERTEX
  5
51A
  8
LAYER_1
 62
   250
 10
-12.0083
 20
118.2771
 30
0.0
  0
VERTEX
  5
51B
  8
LAYER_1
 62
   250
 10
-12.1008
 20
118.0564
 30
0.0
  0
VERTEX
  5
51C
  8
LAYER_1
 62
   250
 10
-12.2186
 20
117.8652
 30
0.0
  0
VERTEX
  5
51D
  8
LAYER_1
 62
   250
 10
-12.3606
 20
117.6968
 30
0.0
  0
VERTEX
  5
51E
  8
LAYER_1
 62
   250
 10
-12.5266
 20
117.5511
 30
0.0
  0
VERTEX
  5
51F
  8
LAYER_1
 62
   250
 10
-12.7165
 20
117.4279
 30
0.0
  0
VERTEX
  5
520
  8
LAYER_1
 62
   250
 10
-12.9236
 20
117.3301
 30
0.0
  0
VERTEX
  5
521
  8
LAYER_1
 62
   250
 10
-13.1397
 20
117.2604
 30
0.0
  0
VERTEX
  5
522
  8
LAYER_1
 62
   250
 10
-13.3651
 20
117.2186
 30
0.0
  0
VERTEX
  5
523
  8
LAYER_1
 62
   250
 10
-13.5999
 20
117.2047
 30
0.0
  0
VERTEX
  5
524
  8
LAYER_1
 62
   250
 10
-13.787
 20
117.2124
 30
0.0
  0
VERTEX
  5
525
  8
LAYER_1
 62
   250
 10
-13.9649
 20
117.2354
 30
0.0
  0
VERTEX
  5
526
  8
LAYER_1
 62
   250
 10
-14.1337
 20
117.2737
 30
0.0
  0
VERTEX
  5
527
  8
LAYER_1
 62
   250
 10
-14.2934
 20
117.3275
 30
0.0
  0
VERTEX
  5
528
  8
LAYER_1
 62
   250
 10
-14.4439
 20
117.3966
 30
0.0
  0
VERTEX
  5
529
  8
LAYER_1
 62
   250
 10
-14.5853
 20
117.4812
 30
0.0
  0
VERTEX
  5
52A
  8
LAYER_1
 62
   250
 10
-14.7175
 20
117.5813
 30
0.0
  0
VERTEX
  5
52B
  8
LAYER_1
 62
   250
 10
-14.8406
 20
117.6969
 30
0.0
  0
VERTEX
  5
52C
  8
LAYER_1
 62
   250
 10
-14.9517
 20
117.8266
 30
0.0
  0
VERTEX
  5
52D
  8
LAYER_1
 62
   250
 10
-15.0479
 20
117.9699
 30
0.0
  0
VERTEX
  5
52E
  8
LAYER_1
 62
   250
 10
-15.1293
 20
118.1267
 30
0.0
  0
VERTEX
  5
52F
  8
LAYER_1
 62
   250
 10
-15.1958
 20
118.2971
 30
0.0
  0
VERTEX
  5
530
  8
LAYER_1
 62
   250
 10
-15.2475
 20
118.4811
 30
0.0
  0
VERTEX
  5
531
  8
LAYER_1
 62
   250
 10
-15.2845
 20
118.6788
 30
0.0
  0
VERTEX
  5
532
  8
LAYER_1
 62
   250
 10
-15.3066
 20
118.89
 30
0.0
  0
VERTEX
  5
533
  8
LAYER_1
 62
   250
 10
-15.314
 20
119.1149
 30
0.0
  0
SEQEND
  5
534
  8
LAYER_1
 62
   250
  0
POLYLINE
  5
50
  8
LAYER_1
 62
   250
 66
     1
 10
0.0
 20
0.0
 30
0.0
 70
     1
  0
VERTEX
  5
535
  8
LAYER_1
 62
   250
 10
-14.6772
 20
119.1149
 30
0.0
  0
VERTEX
  5
536
  8
LAYER_1
 62
   250
 10
-14.6724
 20
118.9447
 30
0.0
  0
VERTEX
  5
537
  8
LAYER_1
 62
   250
 10
-14.658
 20
118.7856
 30
0.0
  0
VERTEX
  5
538
  8
LAYER_1
 62
   250
 10
-14.6341
 20
118.6376
 30
0.0
  0
VERTEX
  5
539
  8
LAYER_1
 62
   250
 10
-14.6006
 20
118.5007
 30
0.0
  0
VERTEX
  5
53A
  8
LAYER_1
 62
   250
 10
-14.5574
 20
118.3748
 30
0.0
  0
VERTEX
  5
53B
  8
LAYER_1
 62
   250
 10
-14.5047
 20
118.26
 30
0.0
  0
VERTEX
  5
53C
  8
LAYER_1
 62
   250
 10
-14.4425
 20
118.1562
 30
0.0
  0
VERTEX
  5
53D
  8
LAYER_1
 62
   250
 10
-14.3706
 20
118.0635
 30
0.0
  0
VERTEX
  5
53E
  8
LAYER_1
 62
   250
 10
-14.2915
 20
117.9813
 30
0.0
  0
VERTEX
  5
53F
  8
LAYER_1
 62
   250
 10
-14.2074
 20
117.9102
 30
0.0
  0
VERTEX
  5
540
  8
LAYER_1
 62
   250
 10
-14.1184
 20
117.85
 30
0.0
  0
VERTEX
  5
541
  8
LAYER_1
 62
   250
 10
-14.0245
 20
117.8008
 30
0.0
  0
VERTEX
  5
542
  8
LAYER_1
 62
   250
 10
-13.9257
 20
117.7625
 30
0.0
  0
VERTEX
  5
543
  8
LAYER_1
 62
   250
 10
-13.8219
 20
117.7352
 30
0.0
  0
VERTEX
  5
544
  8
LAYER_1
 62
   250
 10
-13.7133
 20
117.7189
 30
0.0
  0
VERTEX
  5
545
  8
LAYER_1
 62
   250
 10
-13.5999
 20
117.7134
 30
0.0
  0
VERTEX
  5
546
  8
LAYER_1
 62
   250
 10
-13.4869
 20
117.7189
 30
0.0
  0
VERTEX
  5
547
  8
LAYER_1
 62
   250
 10
-13.3787
 20
117.7354
 30
0.0
  0
VERTEX
  5
548
  8
LAYER_1
 62
   250
 10
-13.2754
 20
117.7629
 30
0.0
  0
VERTEX
  5
549
  8
LAYER_1
 62
   250
 10
-13.177
 20
117.8013
 30
0.0
  0
VERTEX
  5
54A
  8
LAYER_1
 62
   250
 10
-13.0834
 20
117.8507
 30
0.0
  0
VERTEX
  5
54B
  8
LAYER_1
 62
   250
 10
-12.9946
 20
117.9111
 30
0.0
  0
VERTEX
  5
54C
  8
LAYER_1
 62
   250
 10
-12.9107
 20
117.9824
 30
0.0
  0
VERTEX
  5
54D
  8
LAYER_1
 62
   250
 10
-12.8316
 20
118.0646
 30
0.0
  0
VERTEX
  5
54E
  8
LAYER_1
 62
   250
 10
-12.7601
 20
118.1581
 30
0.0
  0
VERTEX
  5
54F
  8
LAYER_1
 62
   250
 10
-12.6981
 20
118.2631
 30
0.0
  0
VERTEX
  5
550
  8
LAYER_1
 62
   250
 10
-12.6456
 20
118.3796
 30
0.0
  0
VERTEX
  5
551
  8
LAYER_1
 62
   250
 10
-12.6026
 20
118.5077
 30
0.0
  0
VERTEX
  5
552
  8
LAYER_1
 62
   250
 10
-12.5692
 20
118.6473
 30
0.0
  0
VERTEX
  5
553
  8
LAYER_1
 62
   250
 10
-12.5452
 20
118.7983
 30
0.0
  0
VERTEX
  5
554
  8
LAYER_1
 62
   250
 10
-12.5309
 20
118.9609
 30
0.0
  0
VERTEX
  5
555
  8
LAYER_1
 62
   250
 10
-12.5261
 20
119.1349
 30
0.0
  0
VERTEX
  5
556
  8
LAYER_1
 62
   250
 10
-12.5309
 20
119.2994
 30
0.0
  0
VERTEX
  5
557
  8
LAYER_1
 62
   250
 10
-12.5453
 20
119.4536
 30
0.0
  0
VERTEX
  5
558
  8
LAYER_1
 62
   250
 10
-12.5693
 20
119.5976
 30
0.0
  0
VERTEX
  5
559
  8
LAYER_1
 62
   250
 10
-12.6029
 20
119.7313
 30
0.0
  0
VERTEX
  5
55A
  8
LAYER_1
 62
   250
 10
-12.6462
 20
119.8547
 30
0.0
  0
VERTEX
  5
55B
  8
LAYER_1
 62
   250
 10
-12.6991
 20
119.9678
 30
0.0
  0
VERTEX
  5
55C
  8
LAYER_1
 62
   250
 10
-12.7616
 20
120.0705
 30
0.0
  0
VERTEX
  5
55D
  8
LAYER_1
 62
   250
 10
-12.8339
 20
120.1629
 30
0.0
  0
VERTEX
  5
55E
  8
LAYER_1
 62
   250
 10
-12.9133
 20
120.2447
 30
0.0
  0
VERTEX
  5
55F
  8
LAYER_1
 62
   250
 10
-12.9974
 20
120.3155
 30
0.0
  0
VERTEX
  5
560
  8
LAYER_1
 62
   250
 10
-13.0861
 20
120.3755
 30
0.0
  0
VERTEX
  5
561
  8
LAYER_1
 62
   250
 10
-13.1795
 20
120.4246
 30
0.0
  0
VERTEX
  5
562
  8
LAYER_1
 62
   250
 10
-13.2775
 20
120.4627
 30
0.0
  0
VERTEX
  5
563
  8
LAYER_1
 62
   250
 10
-13.3803
 20
120.49
 30
0.0
  0
VERTEX
  5
564
  8
LAYER_1
 62
   250
 10
-13.4877
 20
120.5063
 30
0.0
  0
VERTEX
  5
565
  8
LAYER_1
 62
   250
 10
-13.5999
 20
120.5118
 30
0.0
  0
VERTEX
  5
566
  8
LAYER_1
 62
   250
 10
-13.7133
 20
120.5064
 30
0.0
  0
VERTEX
  5
567
  8
LAYER_1
 62
   250
 10
-13.8219
 20
120.49
 30
0.0
  0
VERTEX
  5
568
  8
LAYER_1
 62
   250
 10
-13.9257
 20
120.4628
 30
0.0
  0
VERTEX
  5
569
  8
LAYER_1
 62
   250
 10
-14.0245
 20
120.4247
 30
0.0
  0
VERTEX
  5
56A
  8
LAYER_1
 62
   250
 10
-14.1184
 20
120.3758
 30
0.0
  0
VERTEX
  5
56B
  8
LAYER_1
 62
   250
 10
-14.2074
 20
120.3161
 30
0.0
  0
VERTEX
  5
56C
  8
LAYER_1
 62
   250
 10
-14.2915
 20
120.2455
 30
0.0
  0
VERTEX
  5
56D
  8
LAYER_1
 62
   250
 10
-14.3706
 20
120.1641
 30
0.0
  0
VERTEX
  5
56E
  8
LAYER_1
 62
   250
 10
-14.4425
 20
120.0717
 30
0.0
  0
VERTEX
  5
56F
  8
LAYER_1
 62
   250
 10
-14.5047
 20
119.9683
 30
0.0
  0
VERTEX
  5
570
  8
LAYER_1
 62
   250
 10
-14.5574
 20
119.8537
 30
0.0
  0
VERTEX
  5
571
  8
LAYER_1
 62
   250
 10
-14.6006
 20
119.728
 30
0.0
  0
VERTEX
  5
572
  8
LAYER_1
 62
   250
 10
-14.6341
 20
119.5913
 30
0.0
  0
VERTEX
  5
573
  8
LAYER_1
 62
   250
 10
-14.658
 20
119.4436
 30
0.0
  0
VERTEX
  5
574
  8
LAYER_1
 62
   250
 10
-14.6724
 20
119.2847
 30
0.0
  0
VERTEX
  5
575
  8
LAYER_1
 62
   250
 10
-14.6772
 20
119.1149
 30
0.0
  0
SEQEND
  5
576
  8
LAYER_1
 62
   250
  0
POLYLINE
  5
51
  8
LAYER_1
 62
   250
 66
     1
 10
0.0
 20
0.0
 30
0.0
 70
     1
  0
VERTEX
  5
577
  8
LAYER_1
 62
   250
 10
-9.9239
 20
117.2869
 30
0.0
  0
VERTEX
  5
578
  8
LAYER_1
 62
   250
 10
-11.0424
 20
120.9418
 30
0.0
  0
VERTEX
  5
579
  8
LAYER_1
 62
   250
 10
-10.4021
 20
120.9418
 30
0.0
  0
VERTEX
  5
57A
  8
LAYER_1
 62
   250
 10
-9.8205
 20
118.8318
 30
0.0
  0
VERTEX
  5
57B
  8
LAYER_1
 62
   250
 10
-9.6044
 20
118.047
 30
0.0
  0
VERTEX
  5
57C
  8
LAYER_1
 62
   250
 10
-9.4152
 20
118.8013
 30
0.0
  0
VERTEX
  5
57D
  8
LAYER_1
 62
   250
 10
-8.8337
 20
120.9418
 30
0.0
  0
VERTEX
  5
57E
  8
LAYER_1
 62
   250
 10
-8.1969
 20
120.9418
 30
0.0
  0
VERTEX
  5
57F
  8
LAYER_1
 62
   250
 10
-7.6494
 20
118.8224
 30
0.0
  0
VERTEX
  5
580
  8
LAYER_1
 62
   250
 10
-7.4662
 20
118.1234
 30
0.0
  0
VERTEX
  5
581
  8
LAYER_1
 62
   250
 10
-7.257
 20
118.8295
 30
0.0
  0
VERTEX
  5
582
  8
LAYER_1
 62
   250
 10
-6.6309
 20
120.9418
 30
0.0
  0
VERTEX
  5
583
  8
LAYER_1
 62
   250
 10
-6.0282
 20
120.9418
 30
0.0
  0
VERTEX
  5
584
  8
LAYER_1
 62
   250
 10
-7.1713
 20
117.2869
 30
0.0
  0
VERTEX
  5
585
  8
LAYER_1
 62
   250
 10
-7.8139
 20
117.2869
 30
0.0
  0
VERTEX
  5
586
  8
LAYER_1
 62
   250
 10
-8.3955
 20
119.4756
 30
0.0
  0
VERTEX
  5
587
  8
LAYER_1
 62
   250
 10
-8.5376
 20
120.0995
 30
0.0
  0
VERTEX
  5
588
  8
LAYER_1
 62
   250
 10
-9.2766
 20
117.2869
 30
0.0
  0
VERTEX
  5
589
  8
LAYER_1
 62
   250
 10
-9.9239
 20
117.2869
 30
0.0
  0
SEQEND
  5
58A
  8
LAYER_1
 62
   250
  0
POLYLINE
  5
52
  8
LAYER_1
 62
   250
 66
     1
 10
0.0
 20
0.0
 30
0.0
 70
     1
  0
VERTEX
  5
58B
  8
LAYER_1
 62
   250
 10
-37.0752
 20
108.1162
 30
0.0
  0
VERTEX
  5
58C
  8
LAYER_1
 62
   250
 10
-37.0752
 20
112.5665
 30
0.0
  0
VERTEX
  5
58D
  8
LAYER_1
 62
   250
 10
-38.7375
 20
112.5665
 30
0.0
  0
VERTEX
  5
58E
  8
LAYER_1
 62
   250
 10
-38.7375
 20
113.1621
 30
0.0
  0
VERTEX
  5
58F
  8
LAYER_1
 62
   250
 10
-34.7384
 20
113.1621
 30
0.0
  0
VERTEX
  5
590
  8
LAYER_1
 62
   250
 10
-34.7384
 20
112.5665
 30
0.0
  0
VERTEX
  5
591
  8
LAYER_1
 62
   250
 10
-36.4079
 20
112.5665
 30
0.0
  0
VERTEX
  5
592
  8
LAYER_1
 62
   250
 10
-36.4079
 20
108.1162
 30
0.0
  0
VERTEX
  5
593
  8
LAYER_1
 62
   250
 10
-37.0752
 20
108.1162
 30
0.0
  0
SEQEND
  5
594
  8
LAYER_1
 62
   250
  0
POLYLINE
  5
53
  8
LAYER_1
 62
   250
 66
     1
 10
0.0
 20
0.0
 30
0.0
 70
     1
  0
VERTEX
  5
595
  8
LAYER_1
 62
   250
 10
-30.9319
 20
109.2934
 30
0.0
  0
VERTEX
  5
596
  8
LAYER_1
 62
   250
 10
-30.2917
 20
109.2147
 30
0.0
  0
VERTEX
  5
597
  8
LAYER_1
 62
   250
 10
-30.3336
 20
109.0781
 30
0.0
  0
VERTEX
  5
598
  8
LAYER_1
 62
   250
 10
-30.3835
 20
108.9494
 30
0.0
  0
VERTEX
  5
599
  8
LAYER_1
 62
   250
 10
-30.4415
 20
108.8287
 30
0.0
  0
VERTEX
  5
59A
  8
LAYER_1
 62
   250
 10
-30.5076
 20
108.7158
 30
0.0
  0
VERTEX
  5
59B
  8
LAYER_1
 62
   250
 10
-30.5816
 20
108.6108
 30
0.0
  0
VERTEX
  5
59C
  8
LAYER_1
 62
   250
 10
-30.6637
 20
108.5137
 30
0.0
  0
VERTEX
  5
59D
  8
LAYER_1
 62
   250
 10
-30.7539
 20
108.4244
 30
0.0
  0
VERTEX
  5
59E
  8
LAYER_1
 62
   250
 10
-30.8521
 20
108.3429
 30
0.0
  0
VERTEX
  5
59F
  8
LAYER_1
 62
   250
 10
-30.9583
 20
108.2706
 30
0.0
  0
VERTEX
  5
5A0
  8
LAYER_1
 62
   250
 10
-31.0715
 20
108.2079
 30
0.0
  0
VERTEX
  5
5A1
  8
LAYER_1
 62
   250
 10
-31.1917
 20
108.1548
 30
0.0
  0
VERTEX
  5
5A2
  8
LAYER_1
 62
   250
 10
-31.3191
 20
108.1114
 30
0.0
  0
VERTEX
  5
5A3
  8
LAYER_1
 62
   250
 10
-31.4534
 20
108.0775
 30
0.0
  0
VERTEX
  5
5A4
  8
LAYER_1
 62
   250
 10
-31.5948
 20
108.0534
 30
0.0
  0
VERTEX
  5
5A5
  8
LAYER_1
 62
   250
 10
-31.7433
 20
108.0388
 30
0.0
  0
VERTEX
  5
5A6
  8
LAYER_1
 62
   250
 10
-31.8988
 20
108.034
 30
0.0
  0
VERTEX
  5
5A7
  8
LAYER_1
 62
   250
 10
-32.0941
 20
108.0417
 30
0.0
  0
VERTEX
  5
5A8
  8
LAYER_1
 62
   250
 10
-32.279
 20
108.0648
 30
0.0
  0
VERTEX
  5
5A9
  8
LAYER_1
 62
   250
 10
-32.4535
 20
108.1034
 30
0.0
  0
VERTEX
  5
5AA
  8
LAYER_1
 62
   250
 10
-32.6177
 20
108.1573
 30
0.0
  0
VERTEX
  5
5AB
  8
LAYER_1
 62
   250
 10
-32.7714
 20
108.2267
 30
0.0
  0
VERTEX
  5
5AC
  8
LAYER_1
 62
   250
 10
-32.9147
 20
108.3115
 30
0.0
  0
VERTEX
  5
5AD
  8
LAYER_1
 62
   250
 10
-33.0476
 20
108.4117
 30
0.0
  0
VERTEX
  5
5AE
  8
LAYER_1
 62
   250
 10
-33.17
 20
108.5274
 30
0.0
  0
VERTEX
  5
5AF
  8
LAYER_1
 62
   250
 10
-33.2803
 20
108.657
 30
0.0
  0
VERTEX
  5
5B0
  8
LAYER_1
 62
   250
 10
-33.3758
 20
108.799
 30
0.0
  0
VERTEX
  5
5B1
  8
LAYER_1
 62
   250
 10
-33.4565
 20
108.9535
 30
0.0
  0
VERTEX
  5
5B2
  8
LAYER_1
 62
   250
 10
-33.5226
 20
109.1204
 30
0.0
  0
VERTEX
  5
5B3
  8
LAYER_1
 62
   250
 10
-33.5739
 20
109.2998
 30
0.0
  0
VERTEX
  5
5B4
  8
LAYER_1
 62
   250
 10
-33.6106
 20
109.4916
 30
0.0
  0
VERTEX
  5
5B5
  8
LAYER_1
 62
   250
 10
-33.6326
 20
109.6958
 30
0.0
  0
VERTEX
  5
5B6
  8
LAYER_1
 62
   250
 10
-33.6399
 20
109.9125
 30
0.0
  0
VERTEX
  5
5B7
  8
LAYER_1
 62
   250
 10
-33.6325
 20
110.1369
 30
0.0
  0
VERTEX
  5
5B8
  8
LAYER_1
 62
   250
 10
-33.6102
 20
110.3482
 30
0.0
  0
VERTEX
  5
5B9
  8
LAYER_1
 62
   250
 10
-33.5731
 20
110.5466
 30
0.0
  0
VERTEX
  5
5BA
  8
LAYER_1
 62
   250
 10
-33.5211
 20
110.7321
 30
0.0
  0
VERTEX
  5
5BB
  8
LAYER_1
 62
   250
 10
-33.4543
 20
110.9046
 30
0.0
  0
VERTEX
  5
5BC
  8
LAYER_1
 62
   250
 10
-33.3728
 20
111.0642
 30
0.0
  0
VERTEX
  5
5BD
  8
LAYER_1
 62
   250
 10
-33.2764
 20
111.2108
 30
0.0
  0
VERTEX
  5
5BE
  8
LAYER_1
 62
   250
 10
-33.1653
 20
111.3446
 30
0.0
  0
VERTEX
  5
5BF
  8
LAYER_1
 62
   250
 10
-33.042
 20
111.464
 30
0.0
  0
VERTEX
  5
5C0
  8
LAYER_1
 62
   250
 10
-32.91
 20
111.5675
 30
0.0
  0
VERTEX
  5
5C1
  8
LAYER_1
 62
   250
 10
-32.7692
 20
111.6552
 30
0.0
  0
VERTEX
  5
5C2
  8
LAYER_1
 62
   250
 10
-32.6196
 20
111.7269
 30
0.0
  0
VERTEX
  5
5C3
  8
LAYER_1
 62
   250
 10
-32.4612
 20
111.7827
 30
0.0
  0
VERTEX
  5
5C4
  8
LAYER_1
 62
   250
 10
-32.294
 20
111.8226
 30
0.0
  0
VERTEX
  5
5C5
  8
LAYER_1
 62
   250
 10
-32.1179
 20
111.8465
 30
0.0
  0
VERTEX
  5
5C6
  8
LAYER_1
 62
   250
 10
-31.9329
 20
111.8545
 30
0.0
  0
VERTEX
  5
5C7
  8
LAYER_1
 62
   250
 10
-31.7538
 20
111.8467
 30
0.0
  0
VERTEX
  5
5C8
  8
LAYER_1
 62
   250
 10
-31.5831
 20
111.8232
 30
0.0
  0
VERTEX
  5
5C9
  8
LAYER_1
 62
   250
 10
-31.4208
 20
111.7842
 30
0.0
  0
VERTEX
  5
5CA
  8
LAYER_1
 62
   250
 10
-31.2669
 20
111.7295
 30
0.0
  0
VERTEX
  5
5CB
  8
LAYER_1
 62
   250
 10
-31.1214
 20
111.6593
 30
0.0
  0
VERTEX
  5
5CC
  8
LAYER_1
 62
   250
 10
-30.9844
 20
111.5735
 30
0.0
  0
VERTEX
  5
5CD
  8
LAYER_1
 62
   250
 10
-30.8558
 20
111.4721
 30
0.0
  0
VERTEX
  5
5CE
  8
LAYER_1
 62
   250
 10
-30.7357
 20
111.3552
 30
0.0
  0
VERTEX
  5
5CF
  8
LAYER_1
 62
   250
 10
-30.6267
 20
111.2241
 30
0.0
  0
VERTEX
  5
5D0
  8
LAYER_1
 62
   250
 10
-30.5322
 20
111.0803
 30
0.0
  0
VERTEX
  5
5D1
  8
LAYER_1
 62
   250
 10
-30.4522
 20
110.9238
 30
0.0
  0
VERTEX
  5
5D2
  8
LAYER_1
 62
   250
 10
-30.3868
 20
110.7546
 30
0.0
  0
VERTEX
  5
5D3
  8
LAYER_1
 62
   250
 10
-30.3359
 20
110.5727
 30
0.0
  0
VERTEX
  5
5D4
  8
LAYER_1
 62
   250
 10
-30.2996
 20
110.3782
 30
0.0
  0
VERTEX
  5
5D5
  8
LAYER_1
 62
   250
 10
-30.2778
 20
110.171
 30
0.0
  0
VERTEX
  5
5D6
  8
LAYER_1
 62
   250
 10
-30.2705
 20
109.9513
 30
0.0
  0
VERTEX
  5
5D7
  8
LAYER_1
 62
   250
 10
-30.274
 20
109.7856
 30
0.0
  0
VERTEX
  5
5D8
  8
LAYER_1
 62
   250
 10
-32.9997
 20
109.7856
 30
0.0
  0
VERTEX
  5
5D9
  8
LAYER_1
 62
   250
 10
-32.987
 20
109.6393
 30
0.0
  0
VERTEX
  5
5DA
  8
LAYER_1
 62
   250
 10
-32.9658
 20
109.5019
 30
0.0
  0
VERTEX
  5
5DB
  8
LAYER_1
 62
   250
 10
-32.936
 20
109.3733
 30
0.0
  0
VERTEX
  5
5DC
  8
LAYER_1
 62
   250
 10
-32.8976
 20
109.2536
 30
0.0
  0
VERTEX
  5
5DD
  8
LAYER_1
 62
   250
 10
-32.8507
 20
109.1427
 30
0.0
  0
VERTEX
  5
5DE
  8
LAYER_1
 62
   250
 10
-32.7953
 20
109.0407
 30
0.0
  0
VERTEX
  5
5DF
  8
LAYER_1
 62
   250
 10
-32.7314
 20
108.9476
 30
0.0
  0
VERTEX
  5
5E0
  8
LAYER_1
 62
   250
 10
-32.659
 20
108.8634
 30
0.0
  0
VERTEX
  5
5E1
  8
LAYER_1
 62
   250
 10
-32.58
 20
108.7882
 30
0.0
  0
VERTEX
  5
5E2
  8
LAYER_1
 62
   250
 10
-32.4964
 20
108.7231
 30
0.0
  0
VERTEX
  5
5E3
  8
LAYER_1
 62
   250
 10
-32.408
 20
108.668
 30
0.0
  0
VERTEX
  5
5E4
  8
LAYER_1
 62
   250
 10
-32.315
 20
108.6229
 30
0.0
  0
VERTEX
  5
5E5
  8
LAYER_1
 62
   250
 10
-32.2173
 20
108.5878
 30
0.0
  0
VERTEX
  5
5E6
  8
LAYER_1
 62
   250
 10
-32.1148
 20
108.5627
 30
0.0
  0
VERTEX
  5
5E7
  8
LAYER_1
 62
   250
 10
-32.0074
 20
108.5477
 30
0.0
  0
VERTEX
  5
5E8
  8
LAYER_1
 62
   250
 10
-31.8953
 20
108.5427
 30
0.0
  0
VERTEX
  5
5E9
  8
LAYER_1
 62
   250
 10
-31.7314
 20
108.5539
 30
0.0
  0
VERTEX
  5
5EA
  8
LAYER_1
 62
   250
 10
-31.5799
 20
108.5876
 30
0.0
  0
VERTEX
  5
5EB
  8
LAYER_1
 62
   250
 10
-31.4407
 20
108.6438
 30
0.0
  0
VERTEX
  5
5EC
  8
LAYER_1
 62
   250
 10
-31.3138
 20
108.7224
 30
0.0
  0
VERTEX
  5
5ED
  8
LAYER_1
 62
   250
 10
-31.1994
 20
108.8249
 30
0.0
  0
VERTEX
  5
5EE
  8
LAYER_1
 62
   250
 10
-31.0977
 20
108.9542
 30
0.0
  0
VERTEX
  5
5EF
  8
LAYER_1
 62
   250
 10
-31.0086
 20
109.1103
 30
0.0
  0
VERTEX
  5
5F0
  8
LAYER_1
 62
   250
 10
-30.9319
 20
109.2934
 30
0.0
  0
SEQEND
  5
5F1
  8
LAYER_1
 62
   250
  0
POLYLINE
  5
54
  8
LAYER_1
 62
   250
 66
     1
 10
0.0
 20
0.0
 30
0.0
 70
     1
  0
VERTEX
  5
5F2
  8
LAYER_1
 62
   250
 10
-32.9656
 20
110.2955
 30
0.0
  0
VERTEX
  5
5F3
  8
LAYER_1
 62
   250
 10
-30.9249
 20
110.2955
 30
0.0
  0
VERTEX
  5
5F4
  8
LAYER_1
 62
   250
 10
-30.9548
 20
110.5113
 30
0.0
  0
VERTEX
  5
5F5
  8
LAYER_1
 62
   250
 10
-31.0039
 20
110.6986
 30
0.0
  0
VERTEX
  5
5F6
  8
LAYER_1
 62
   250
 10
-31.0719
 20
110.8571
 30
0.0
  0
VERTEX
  5
5F7
  8
LAYER_1
 62
   250
 10
-31.1587
 20
110.9863
 30
0.0
  0
VERTEX
  5
5F8
  8
LAYER_1
 62
   250
 10
-31.2355
 20
111.0702
 30
0.0
  0
VERTEX
  5
5F9
  8
LAYER_1
 62
   250
 10
-31.3177
 20
111.1429
 30
0.0
  0
VERTEX
  5
5FA
  8
LAYER_1
 62
   250
 10
-31.4055
 20
111.2045
 30
0.0
  0
VERTEX
  5
5FB
  8
LAYER_1
 62
   250
 10
-31.4987
 20
111.2549
 30
0.0
  0
VERTEX
  5
5FC
  8
LAYER_1
 62
   250
 10
-31.5973
 20
111.2941
 30
0.0
  0
VERTEX
  5
5FD
  8
LAYER_1
 62
   250
 10
-31.7014
 20
111.3222
 30
0.0
  0
VERTEX
  5
5FE
  8
LAYER_1
 62
   250
 10
-31.811
 20
111.339
 30
0.0
  0
VERTEX
  5
5FF
  8
LAYER_1
 62
   250
 10
-31.9259
 20
111.3446
 30
0.0
  0
VERTEX
  5
600
  8
LAYER_1
 62
   250
 10
-32.1307
 20
111.3268
 30
0.0
  0
VERTEX
  5
601
  8
LAYER_1
 62
   250
 10
-32.3187
 20
111.2733
 30
0.0
  0
VERTEX
  5
602
  8
LAYER_1
 62
   250
 10
-32.4897
 20
111.1841
 30
0.0
  0
VERTEX
  5
603
  8
LAYER_1
 62
   250
 10
-32.6437
 20
111.0592
 30
0.0
  0
VERTEX
  5
604
  8
LAYER_1
 62
   250
 10
-32.7123
 20
110.9848
 30
0.0
  0
VERTEX
  5
605
  8
LAYER_1
 62
   250
 10
-32.7728
 20
110.9043
 30
0.0
  0
VERTEX
  5
606
  8
LAYER_1
 62
   250
 10
-32.8251
 20
110.8178
 30
0.0
  0
VERTEX
  5
607
  8
LAYER_1
 62
   250
 10
-32.8694
 20
110.7254
 30
0.0
  0
VERTEX
  5
608
  8
LAYER_1
 62
   250
 10
-32.9336
 20
110.5224
 30
0.0
  0
VERTEX
  5
609
  8
LAYER_1
 62
   250
 10
-32.9656
 20
110.2955
 30
0.0
  0
SEQEND
  5
60A
  8
LAYER_1
 62
   250
  0
POLYLINE
  5
55
  8
LAYER_1
 62
   250
 66
     1
 10
0.0
 20
0.0
 30
0.0
 70
     1
  0
VERTEX
  5
60B
  8
LAYER_1
 62
   250
 10
-28.9489
 20
108.1162
 30
0.0
  0
VERTEX
  5
60C
  8
LAYER_1
 62
   250
 10
-28.9489
 20
111.7711
 30
0.0
  0
VERTEX
  5
60D
  8
LAYER_1
 62
   250
 10
-28.3955
 20
111.7711
 30
0.0
  0
VERTEX
  5
60E
  8
LAYER_1
 62
   250
 10
-28.3955
 20
111.2589
 30
0.0
  0
VERTEX
  5
60F
  8
LAYER_1
 62
   250
 10
-28.3021
 20
111.3864
 30
0.0
  0
VERTEX
  5
610
  8
LAYER_1
 62
   250
 10
-28.1946
 20
111.5009
 30
0.0
  0
VERTEX
  5
611
  8
LAYER_1
 62
   250
 10
-28.073
 20
111.6022
 30
0.0
  0
VERTEX
  5
612
  8
LAYER_1
 62
   250
 10
-27.9373
 20
111.69
 30
0.0
  0
VERTEX
  5
613
  8
LAYER_1
 62
   250
 10
-27.7895
 20
111.7618
 30
0.0
  0
VERTEX
  5
614
  8
LAYER_1
 62
   250
 10
-27.6317
 20
111.8132
 30
0.0
  0
VERTEX
  5
615
  8
LAYER_1
 62
   250
 10
-27.464
 20
111.8442
 30
0.0
  0
VERTEX
  5
616
  8
LAYER_1
 62
   250
 10
-27.2865
 20
111.8545
 30
0.0
  0
VERTEX
  5
617
  8
LAYER_1
 62
   250
 10
-27.0929
 20
111.8439
 30
0.0
  0
VERTEX
  5
618
  8
LAYER_1
 62
   250
 10
-26.9174
 20
111.8122
 30
0.0
  0
VERTEX
  5
619
  8
LAYER_1
 62
   250
 10
-26.7603
 20
111.7593
 30
0.0
  0
VERTEX
  5
61A
  8
LAYER_1
 62
   250
 10
-26.6215
 20
111.6853
 30
0.0
  0
VERTEX
  5
61B
  8
LAYER_1
 62
   250
 10
-26.5008
 20
111.5926
 30
0.0
  0
VERTEX
  5
61C
  8
LAYER_1
 62
   250
 10
-26.3995
 20
111.4833
 30
0.0
  0
VERTEX
  5
61D
  8
LAYER_1
 62
   250
 10
-26.3176
 20
111.3572
 30
0.0
  0
VERTEX
  5
61E
  8
LAYER_1
 62
   250
 10
-26.255
 20
111.2142
 30
0.0
  0
VERTEX
  5
61F
  8
LAYER_1
 62
   250
 10
-26.1422
 20
111.3642
 30
0.0
  0
VERTEX
  5
620
  8
LAYER_1
 62
   250
 10
-26.0212
 20
111.4942
 30
0.0
  0
VERTEX
  5
621
  8
LAYER_1
 62
   250
 10
-25.8923
 20
111.6042
 30
0.0
  0
VERTEX
  5
622
  8
LAYER_1
 62
   250
 10
-25.7552
 20
111.6943
 30
0.0
  0
VERTEX
  5
623
  8
LAYER_1
 62
   250
 10
-25.6101
 20
111.7644
 30
0.0
  0
VERTEX
  5
624
  8
LAYER_1
 62
   250
 10
-25.4568
 20
111.8144
 30
0.0
  0
VERTEX
  5
625
  8
LAYER_1
 62
   250
 10
-25.2955
 20
111.8445
 30
0.0
  0
VERTEX
  5
626
  8
LAYER_1
 62
   250
 10
-25.126
 20
111.8545
 30
0.0
  0
VERTEX
  5
627
  8
LAYER_1
 62
   250
 10
-24.9938
 20
111.8498
 30
0.0
  0
VERTEX
  5
628
  8
LAYER_1
 62
   250
 10
-24.8695
 20
111.8356
 30
0.0
  0
VERTEX
  5
629
  8
LAYER_1
 62
   250
 10
-24.7532
 20
111.8119
 30
0.0
  0
VERTEX
  5
62A
  8
LAYER_1
 62
   250
 10
-24.6447
 20
111.7789
 30
0.0
  0
VERTEX
  5
62B
  8
LAYER_1
 62
   250
 10
-24.5441
 20
111.7364
 30
0.0
  0
VERTEX
  5
62C
  8
LAYER_1
 62
   250
 10
-24.4514
 20
111.6845
 30
0.0
  0
VERTEX
  5
62D
  8
LAYER_1
 62
   250
 10
-24.3665
 20
111.6233
 30
0.0
  0
VERTEX
  5
62E
  8
LAYER_1
 62
   250
 10
-24.2895
 20
111.5526
 30
0.0
  0
VERTEX
  5
62F
  8
LAYER_1
 62
   250
 10
-24.2209
 20
111.4722
 30
0.0
  0
VERTEX
  5
630
  8
LAYER_1
 62
   250
 10
-24.1615
 20
111.3817
 30
0.0
  0
VERTEX
  5
631
  8
LAYER_1
 62
   250
 10
-24.1112
 20
111.281
 30
0.0
  0
VERTEX
  5
632
  8
LAYER_1
 62
   250
 10
-24.0701
 20
111.1702
 30
0.0
  0
VERTEX
  5
633
  8
LAYER_1
 62
   250
 10
-24.0381
 20
111.0492
 30
0.0
  0
VERTEX
  5
634
  8
LAYER_1
 62
   250
 10
-24.0152
 20
110.9182
 30
0.0
  0
VERTEX
  5
635
  8
LAYER_1
 62
   250
 10
-24.0015
 20
110.7769
 30
0.0
  0
VERTEX
  5
636
  8
LAYER_1
 62
   250
 10
-23.9969
 20
110.6256
 30
0.0
  0
VERTEX
  5
637
  8
LAYER_1
 62
   250
 10
-23.9969
 20
108.1162
 30
0.0
  0
VERTEX
  5
638
  8
LAYER_1
 62
   250
 10
-24.6126
 20
108.1162
 30
0.0
  0
VERTEX
  5
639
  8
LAYER_1
 62
   250
 10
-24.6126
 20
110.4189
 30
0.0
  0
VERTEX
  5
63A
  8
LAYER_1
 62
   250
 10
-24.6163
 20
110.5918
 30
0.0
  0
VERTEX
  5
63B
  8
LAYER_1
 62
   250
 10
-24.6276
 20
110.7387
 30
0.0
  0
VERTEX
  5
63C
  8
LAYER_1
 62
   250
 10
-24.6463
 20
110.8596
 30
0.0
  0
VERTEX
  5
63D
  8
LAYER_1
 62
   250
 10
-24.6725
 20
110.9546
 30
0.0
  0
VERTEX
  5
63E
  8
LAYER_1
 62
   250
 10
-24.7093
 20
111.0319
 30
0.0
  0
VERTEX
  5
63F
  8
LAYER_1
 62
   250
 10
-24.7579
 20
111.1016
 30
0.0
  0
VERTEX
  5
640
  8
LAYER_1
 62
   250
 10
-24.8185
 20
111.1636
 30
0.0
  0
VERTEX
  5
641
  8
LAYER_1
 62
   250
 10
-24.891
 20
111.2178
 30
0.0
  0
VERTEX
  5
642
  8
LAYER_1
 62
   250
 10
-24.9738
 20
111.2612
 30
0.0
  0
VERTEX
  5
643
  8
LAYER_1
 62
   250
 10
-25.0636
 20
111.2924
 30
0.0
  0
VERTEX
  5
644
  8
LAYER_1
 62
   250
 10
-25.1601
 20
111.3113
 30
0.0
  0
VERTEX
  5
645
  8
LAYER_1
 62
   250
 10
-25.2634
 20
111.3176
 30
0.0
  0
VERTEX
  5
646
  8
LAYER_1
 62
   250
 10
-25.448
 20
111.3015
 30
0.0
  0
VERTEX
  5
647
  8
LAYER_1
 62
   250
 10
-25.6161
 20
111.2533
 30
0.0
  0
VERTEX
  5
648
  8
LAYER_1
 62
   250
 10
-25.7679
 20
111.1729
 30
0.0
  0
VERTEX
  5
649
  8
LAYER_1
 62
   250
 10
-25.9037
 20
111.0603
 30
0.0
  0
VERTEX
  5
64A
  8
LAYER_1
 62
   250
 10
-25.9632
 20
110.9916
 30
0.0
  0
VERTEX
  5
64B
  8
LAYER_1
 62
   250
 10
-26.0149
 20
110.9132
 30
0.0
  0
VERTEX
  5
64C
  8
LAYER_1
 62
   250
 10
-26.0587
 20
110.8251
 30
0.0
  0
VERTEX
  5
64D
  8
LAYER_1
 62
   250
 10
-26.0946
 20
110.7274
 30
0.0
  0
VERTEX
  5
64E
  8
LAYER_1
 62
   250
 10
-26.1426
 20
110.5031
 30
0.0
  0
VERTEX
  5
64F
  8
LAYER_1
 62
   250
 10
-26.1586
 20
110.2403
 30
0.0
  0
VERTEX
  5
650
  8
LAYER_1
 62
   250
 10
-26.1586
 20
108.1162
 30
0.0
  0
VERTEX
  5
651
  8
LAYER_1
 62
   250
 10
-26.7778
 20
108.1162
 30
0.0
  0
VERTEX
  5
652
  8
LAYER_1
 62
   250
 10
-26.7778
 20
110.4905
 30
0.0
  0
VERTEX
  5
653
  8
LAYER_1
 62
   250
 10
-26.7873
 20
110.6846
 30
0.0
  0
VERTEX
  5
654
  8
LAYER_1
 62
   250
 10
-26.8157
 20
110.8527
 30
0.0
  0
VERTEX
  5
655
  8
LAYER_1
 62
   250
 10
-26.863
 20
110.9948
 30
0.0
  0
VERTEX
  5
656
  8
LAYER_1
 62
   250
 10
-26.9293
 20
111.1109
 30
0.0
  0
VERTEX
  5
657
  8
LAYER_1
 62
   250
 10
-27.017
 20
111.2012
 30
0.0
  0
VERTEX
  5
658
  8
LAYER_1
 62
   250
 10
-27.1288
 20
111.2658
 30
0.0
  0
VERTEX
  5
659
  8
LAYER_1
 62
   250
 10
-27.2647
 20
111.3046
 30
0.0
  0
VERTEX
  5
65A
  8
LAYER_1
 62
   250
 10
-27.4251
 20
111.3176
 30
0.0
  0
VERTEX
  5
65B
  8
LAYER_1
 62
   250
 10
-27.5531
 20
111.309
 30
0.0
  0
VERTEX
  5
65C
  8
LAYER_1
 62
   250
 10
-27.6762
 20
111.2831
 30
0.0
  0
VERTEX
  5
65D
  8
LAYER_1
 62
   250
 10
-27.7945
 20
111.2398
 30
0.0
  0
VERTEX
  5
65E
  8
LAYER_1
 62
   250
 10
-27.908
 20
111.179
 30
0.0
  0
VERTEX
  5
65F
  8
LAYER_1
 62
   250
 10
-28.0115
 20
111.1024
 30
0.0
  0
VERTEX
  5
660
  8
LAYER_1
 62
   250
 10
-28.0998
 20
111.0098
 30
0.0
  0
VERTEX
  5
661
  8
LAYER_1
 62
   250
 10
-28.1727
 20
110.9014
 30
0.0
  0
VERTEX
  5
662
  8
LAYER_1
 62
   250
 10
-28.2299
 20
110.7772
 30
0.0
  0
VERTEX
  5
663
  8
LAYER_1
 62
   250
 10
-28.2737
 20
110.6296
 30
0.0
  0
VERTEX
  5
664
  8
LAYER_1
 62
   250
 10
-28.3049
 20
110.453
 30
0.0
  0
VERTEX
  5
665
  8
LAYER_1
 62
   250
 10
-28.3235
 20
110.2472
 30
0.0
  0
VERTEX
  5
666
  8
LAYER_1
 62
   250
 10
-28.3297
 20
110.0124
 30
0.0
  0
VERTEX
  5
667
  8
LAYER_1
 62
   250
 10
-28.3297
 20
108.1162
 30
0.0
  0
VERTEX
  5
668
  8
LAYER_1
 62
   250
 10
-28.9489
 20
108.1162
 30
0.0
  0
SEQEND
  5
669
  8
LAYER_1
 62
   250
  0
POLYLINE
  5
56
  8
LAYER_1
 62
   250
 66
     1
 10
0.0
 20
0.0
 30
0.0
 70
     1
  0
VERTEX
  5
66A
  8
LAYER_1
 62
   250
 10
-22.3722
 20
106.7158
 30
0.0
  0
VERTEX
  5
66B
  8
LAYER_1
 62
   250
 10
-22.3722
 20
111.7711
 30
0.0
  0
VERTEX
  5
66C
  8
LAYER_1
 62
   250
 10
-21.8082
 20
111.7711
 30
0.0
  0
VERTEX
  5
66D
  8
LAYER_1
 62
   250
 10
-21.8082
 20
111.2965
 30
0.0
  0
VERTEX
  5
66E
  8
LAYER_1
 62
   250
 10
-21.7054
 20
111.4271
 30
0.0
  0
VERTEX
  5
66F
  8
LAYER_1
 62
   250
 10
-21.5959
 20
111.5404
 30
0.0
  0
VERTEX
  5
670
  8
LAYER_1
 62
   250
 10
-21.4798
 20
111.6363
 30
0.0
  0
VERTEX
  5
671
  8
LAYER_1
 62
   250
 10
-21.3571
 20
111.7147
 30
0.0
  0
VERTEX
  5
672
  8
LAYER_1
 62
   250
 10
-21.2252
 20
111.7757
 30
0.0
  0
VERTEX
  5
673
  8
LAYER_1
 62
   250
 10
-21.0797
 20
111.8194
 30
0.0
  0
VERTEX
  5
674
  8
LAYER_1
 62
   250
 10
-20.9208
 20
111.8457
 30
0.0
  0
VERTEX
  5
675
  8
LAYER_1
 62
   250
 10
-20.7485
 20
111.8545
 30
0.0
  0
VERTEX
  5
676
  8
LAYER_1
 62
   250
 10
-20.5212
 20
111.8393
 30
0.0
  0
VERTEX
  5
677
  8
LAYER_1
 62
   250
 10
-20.3078
 20
111.794
 30
0.0
  0
VERTEX
  5
678
  8
LAYER_1
 62
   250
 10
-20.1083
 20
111.7187
 30
0.0
  0
VERTEX
  5
679
  8
LAYER_1
 62
   250
 10
-19.9226
 20
111.6137
 30
0.0
  0
VERTEX
  5
67A
  8
LAYER_1
 62
   250
 10
-19.7541
 20
111.4806
 30
0.0
  0
VERTEX
  5
67B
  8
LAYER_1
 62
   250
 10
-19.6079
 20
111.3229
 30
0.0
  0
VERTEX
  5
67C
  8
LAYER_1
 62
   250
 10
-19.484
 20
111.1405
 30
0.0
  0
VERTEX
  5
67D
  8
LAYER_1
 62
   250
 10
-19.3822
 20
110.9335
 30
0.0
  0
VERTEX
  5
67E
  8
LAYER_1
 62
   250
 10
-19.302
 20
110.7088
 30
0.0
  0
VERTEX
  5
67F
  8
LAYER_1
 62
   250
 10
-19.2447
 20
110.4735
 30
0.0
  0
VERTEX
  5
680
  8
LAYER_1
 62
   250
 10
-19.2104
 20
110.2277
 30
0.0
  0
VERTEX
  5
681
  8
LAYER_1
 62
   250
 10
-19.1989
 20
109.9713
 30
0.0
  0
VERTEX
  5
682
  8
LAYER_1
 62
   250
 10
-19.2115
 20
109.6979
 30
0.0
  0
VERTEX
  5
683
  8
LAYER_1
 62
   250
 10
-19.2493
 20
109.4384
 30
0.0
  0
VERTEX
  5
684
  8
LAYER_1
 62
   250
 10
-19.3124
 20
109.1926
 30
0.0
  0
VERTEX
  5
685
  8
LAYER_1
 62
   250
 10
-19.401
 20
108.9609
 30
0.0
  0
VERTEX
  5
686
  8
LAYER_1
 62
   250
 10
-19.5129
 20
108.7494
 30
0.0
  0
VERTEX
  5
687
  8
LAYER_1
 62
   250
 10
-19.6477
 20
108.5642
 30
0.0
  0
VERTEX
  5
688
  8
LAYER_1
 62
   250
 10
-19.8055
 20
108.4053
 30
0.0
  0
VERTEX
  5
689
  8
LAYER_1
 62
   250
 10
-19.9861
 20
108.2725
 30
0.0
  0
VERTEX
  5
68A
  8
LAYER_1
 62
   250
 10
-20.1806
 20
108.1683
 30
0.0
  0
VERTEX
  5
68B
  8
LAYER_1
 62
   250
 10
-20.3799
 20
108.0938
 30
0.0
  0
VERTEX
  5
68C
  8
LAYER_1
 62
   250
 10
-20.5841
 20
108.049
 30
0.0
  0
VERTEX
  5
68D
  8
LAYER_1
 62
   250
 10
-20.7932
 20
108.034
 30
0.0
  0
VERTEX
  5
68E
  8
LAYER_1
 62
   250
 10
-20.9441
 20
108.0421
 30
0.0
  0
VERTEX
  5
68F
  8
LAYER_1
 62
   250
 10
-21.0869
 20
108.0666
 30
0.0
  0
VERTEX
  5
690
  8
LAYER_1
 62
   250
 10
-21.2218
 20
108.1073
 30
0.0
  0
VERTEX
  5
691
  8
LAYER_1
 62
   250
 10
-21.3489
 20
108.1644
 30
0.0
  0
VERTEX
  5
692
  8
LAYER_1
 62
   250
 10
-21.4666
 20
108.234
 30
0.0
  0
VERTEX
  5
693
  8
LAYER_1
 62
   250
 10
-21.573
 20
108.3122
 30
0.0
  0
VERTEX
  5
694
  8
LAYER_1
 62
   250
 10
-21.6684
 20
108.3991
 30
0.0
  0
VERTEX
  5
695
  8
LAYER_1
 62
   250
 10
-21.753
 20
108.4945
 30
0.0
  0
VERTEX
  5
696
  8
LAYER_1
 62
   250
 10
-21.753
 20
106.7158
 30
0.0
  0
VERTEX
  5
697
  8
LAYER_1
 62
   250
 10
-22.3722
 20
106.7158
 30
0.0
  0
SEQEND
  5
698
  8
LAYER_1
 62
   250
  0
POLYLINE
  5
57
  8
LAYER_1
 62
   250
 66
     1
 10
0.0
 20
0.0
 30
0.0
 70
     1
  0
VERTEX
  5
699
  8
LAYER_1
 62
   250
 10
-21.8118
 20
109.9231
 30
0.0
  0
VERTEX
  5
69A
  8
LAYER_1
 62
   250
 10
-21.8073
 20
109.7526
 30
0.0
  0
VERTEX
  5
69B
  8
LAYER_1
 62
   250
 10
-21.794
 20
109.5936
 30
0.0
  0
VERTEX
  5
69C
  8
LAYER_1
 62
   250
 10
-21.7716
 20
109.446
 30
0.0
  0
VERTEX
  5
69D
  8
LAYER_1
 62
   250
 10
-21.7404
 20
109.3098
 30
0.0
  0
VERTEX
  5
69E
  8
LAYER_1
 62
   250
 10
-21.7003
 20
109.1851
 30
0.0
  0
VERTEX
  5
69F
  8
LAYER_1
 62
   250
 10
-21.6512
 20
109.0719
 30
0.0
  0
VERTEX
  5
6A0
  8
LAYER_1
 62
   250
 10
-21.5932
 20
108.9701
 30
0.0
  0
VERTEX
  5
6A1
  8
LAYER_1
 62
   250
 10
-21.5263
 20
108.8798
 30
0.0
  0
VERTEX
  5
6A2
  8
LAYER_1
 62
   250
 10
-21.453
 20
108.8009
 30
0.0
  0
VERTEX
  5
6A3
  8
LAYER_1
 62
   250
 10
-21.3759
 20
108.7325
 30
0.0
  0
VERTEX
  5
6A4
  8
LAYER_1
 62
   250
 10
-21.295
 20
108.6745
 30
0.0
  0
VERTEX
  5
6A5
  8
LAYER_1
 62
   250
 10
-21.2103
 20
108.6271
 30
0.0
  0
VERTEX
  5
6A6
  8
LAYER_1
 62
   250
 10
-21.1218
 20
108.5902
 30
0.0
  0
VERTEX
  5
6A7
  8
LAYER_1
 62
   250
 10
-21.0297
 20
108.5638
 30
0.0
  0
VERTEX
  5
6A8
  8
LAYER_1
 62
   250
 10
-20.9338
 20
108.548
 30
0.0
  0
VERTEX
  5
6A9
  8
LAYER_1
 62
   250
 10
-20.8343
 20
108.5427
 30
0.0
  0
VERTEX
  5
6AA
  8
LAYER_1
 62
   250
 10
-20.733
 20
108.5482
 30
0.0
  0
VERTEX
  5
6AB
  8
LAYER_1
 62
   250
 10
-20.6354
 20
108.5645
 30
0.0
  0
VERTEX
  5
6AC
  8
LAYER_1
 62
   250
 10
-20.5415
 20
108.5918
 30
0.0
  0
VERTEX
  5
6AD
  8
LAYER_1
 62
   250
 10
-20.4512
 20
108.6301
 30
0.0
  0
VERTEX
  5
6AE
  8
LAYER_1
 62
   250
 10
-20.3646
 20
108.6793
 30
0.0
  0
VERTEX
  5
6AF
  8
LAYER_1
 62
   250
 10
-20.2817
 20
108.7395
 30
0.0
  0
VERTEX
  5
6B0
  8
LAYER_1
 62
   250
 10
-20.2025
 20
108.8106
 30
0.0
  0
VERTEX
  5
6B1
  8
LAYER_1
 62
   250
 10
-20.1271
 20
108.8928
 30
0.0
  0
VERTEX
  5
6B2
  8
LAYER_1
 62
   250
 10
-20.0581
 20
108.986
 30
0.0
  0
VERTEX
  5
6B3
  8
LAYER_1
 62
   250
 10
-19.9983
 20
109.0913
 30
0.0
  0
VERTEX
  5
6B4
  8
LAYER_1
 62
   250
 10
-19.9476
 20
109.2085
 30
0.0
  0
VERTEX
  5
6B5
  8
LAYER_1
 62
   250
 10
-19.9061
 20
109.3378
 30
0.0
  0
VERTEX
  5
6B6
  8
LAYER_1
 62
   250
 10
-19.8738
 20
109.479
 30
0.0
  0
VERTEX
  5
6B7
  8
LAYER_1
 62
   250
 10
-19.8507
 20
109.6323
 30
0.0
  0
VERTEX
  5
6B8
  8
LAYER_1
 62
   250
 10
-19.8368
 20
109.7975
 30
0.0
  0
VERTEX
  5
6B9
  8
LAYER_1
 62
   250
 10
-19.8322
 20
109.9748
 30
0.0
  0
VERTEX
  5
6BA
  8
LAYER_1
 62
   250
 10
-19.8367
 20
110.1441
 30
0.0
  0
VERTEX
  5
6BB
  8
LAYER_1
 62
   250
 10
-19.8502
 20
110.3024
 30
0.0
  0
VERTEX
  5
6BC
  8
LAYER_1
 62
   250
 10
-19.8728
 20
110.4496
 30
0.0
  0
VERTEX
  5
6BD
  8
LAYER_1
 62
   250
 10
-19.9043
 20
110.5858
 30
0.0
  0
VERTEX
  5
6BE
  8
LAYER_1
 62
   250
 10
-19.9448
 20
110.7111
 30
0.0
  0
VERTEX
  5
6BF
  8
LAYER_1
 62
   250
 10
-19.9942
 20
110.8255
 30
0.0
  0
VERTEX
  5
6C0
  8
LAYER_1
 62
   250
 10
-20.0527
 20
110.9289
 30
0.0
  0
VERTEX
  5
6C1
  8
LAYER_1
 62
   250
 10
-20.12
 20
111.0216
 30
0.0
  0
VERTEX
  5
6C2
  8
LAYER_1
 62
   250
 10
-20.1936
 20
111.103
 30
0.0
  0
VERTEX
  5
6C3
  8
LAYER_1
 62
   250
 10
-20.2707
 20
111.1736
 30
0.0
  0
VERTEX
  5
6C4
  8
LAYER_1
 62
   250
 10
-20.3512
 20
111.2333
 30
0.0
  0
VERTEX
  5
6C5
  8
LAYER_1
 62
   250
 10
-20.4353
 20
111.2822
 30
0.0
  0
VERTEX
  5
6C6
  8
LAYER_1
 62
   250
 10
-20.5228
 20
111.3203
 30
0.0
  0
VERTEX
  5
6C7
  8
LAYER_1
 62
   250
 10
-20.6138
 20
111.3475
 30
0.0
  0
VERTEX
  5
6C8
  8
LAYER_1
 62
   250
 10
-20.7082
 20
111.3639
 30
0.0
  0
VERTEX
  5
6C9
  8
LAYER_1
 62
   250
 10
-20.8061
 20
111.3693
 30
0.0
  0
VERTEX
  5
6CA
  8
LAYER_1
 62
   250
 10
-20.9038
 20
111.3635
 30
0.0
  0
VERTEX
  5
6CB
  8
LAYER_1
 62
   250
 10
-20.9986
 20
111.3462
 30
0.0
  0
VERTEX
  5
6CC
  8
LAYER_1
 62
   250
 10
-21.0906
 20
111.3173
 30
0.0
  0
VERTEX
  5
6CD
  8
LAYER_1
 62
   250
 10
-21.1797
 20
111.2768
 30
0.0
  0
VERTEX
  5
6CE
  8
LAYER_1
 62
   250
 10
-21.2659
 20
111.2248
 30
0.0
  0
VERTEX
  5
6CF
  8
LAYER_1
 62
   250
 10
-21.3493
 20
111.1611
 30
0.0
  0
VERTEX
  5
6D0
  8
LAYER_1
 62
   250
 10
-21.4298
 20
111.086
 30
0.0
  0
VERTEX
  5
6D1
  8
LAYER_1
 62
   250
 10
-21.5075
 20
110.9992
 30
0.0
  0
VERTEX
  5
6D2
  8
LAYER_1
 62
   250
 10
-21.5789
 20
110.9014
 30
0.0
  0
VERTEX
  5
6D3
  8
LAYER_1
 62
   250
 10
-21.6408
 20
110.7931
 30
0.0
  0
VERTEX
  5
6D4
  8
LAYER_1
 62
   250
 10
-21.6931
 20
110.6742
 30
0.0
  0
VERTEX
  5
6D5
  8
LAYER_1
 62
   250
 10
-21.7359
 20
110.5449
 30
0.0
  0
VERTEX
  5
6D6
  8
LAYER_1
 62
   250
 10
-21.7691
 20
110.405
 30
0.0
  0
VERTEX
  5
6D7
  8
LAYER_1
 62
   250
 10
-21.7928
 20
110.2548
 30
0.0
  0
VERTEX
  5
6D8
  8
LAYER_1
 62
   250
 10
-21.8071
 20
110.0941
 30
0.0
  0
VERTEX
  5
6D9
  8
LAYER_1
 62
   250
 10
-21.8118
 20
109.9231
 30
0.0
  0
SEQEND
  5
6DA
  8
LAYER_1
 62
   250
  0
POLYLINE
  5
58
  8
LAYER_1
 62
   250
 66
     1
 10
0.0
 20
0.0
 30
0.0
 70
     1
  0
VERTEX
  5
6DB
  8
LAYER_1
 62
   250
 10
-17.7611
 20
108.1162
 30
0.0
  0
VERTEX
  5
6DC
  8
LAYER_1
 62
   250
 10
-17.7611
 20
113.1621
 30
0.0
  0
VERTEX
  5
6DD
  8
LAYER_1
 62
   250
 10
-17.1419
 20
113.1621
 30
0.0
  0
VERTEX
  5
6DE
  8
LAYER_1
 62
   250
 10
-17.1419
 20
108.1162
 30
0.0
  0
VERTEX
  5
6DF
  8
LAYER_1
 62
   250
 10
-17.7611
 20
108.1162
 30
0.0
  0
SEQEND
  5
6E0
  8
LAYER_1
 62
   250
  0
POLYLINE
  5
59
  8
LAYER_1
 62
   250
 66
     1
 10
0.0
 20
0.0
 30
0.0
 70
     1
  0
VERTEX
  5
6E1
  8
LAYER_1
 62
   250
 10
-13.2321
 20
108.5673
 30
0.0
  0
VERTEX
  5
6E2
  8
LAYER_1
 62
   250
 10
-13.403
 20
108.4318
 30
0.0
  0
VERTEX
  5
6E3
  8
LAYER_1
 62
   250
 10
-13.5704
 20
108.3178
 30
0.0
  0
VERTEX
  5
6E4
  8
LAYER_1
 62
   250
 10
-13.7343
 20
108.2252
 30
0.0
  0
VERTEX
  5
6E5
  8
LAYER_1
 62
   250
 10
-13.8947
 20
108.1538
 30
0.0
  0
VERTEX
  5
6E6
  8
LAYER_1
 62
   250
 10
-14.057
 20
108.1014
 30
0.0
  0
VERTEX
  5
6E7
  8
LAYER_1
 62
   250
 10
-14.2251
 20
108.0639
 30
0.0
  0
VERTEX
  5
6E8
  8
LAYER_1
 62
   250
 10
-14.3989
 20
108.0415
 30
0.0
  0
VERTEX
  5
6E9
  8
LAYER_1
 62
   250
 10
-14.5784
 20
108.034
 30
0.0
  0
VERTEX
  5
6EA
  8
LAYER_1
 62
   250
 10
-14.7247
 20
108.0386
 30
0.0
  0
VERTEX
  5
6EB
  8
LAYER_1
 62
   250
 10
-14.8622
 20
108.0523
 30
0.0
  0
VERTEX
  5
6EC
  8
LAYER_1
 62
   250
 10
-14.9909
 20
108.0752
 30
0.0
  0
VERTEX
  5
6ED
  8
LAYER_1
 62
   250
 10
-15.1109
 20
108.1073
 30
0.0
  0
VERTEX
  5
6EE
  8
LAYER_1
 62
   250
 10
-15.2222
 20
108.1486
 30
0.0
  0
VERTEX
  5
6EF
  8
LAYER_1
 62
   250
 10
-15.3248
 20
108.199
 30
0.0
  0
VERTEX
  5
6F0
  8
LAYER_1
 62
   250
 10
-15.4188
 20
108.2587
 30
0.0
  0
VERTEX
  5
6F1
  8
LAYER_1
 62
   250
 10
-15.5042
 20
108.3277
 30
0.0
  0
VERTEX
  5
6F2
  8
LAYER_1
 62
   250
 10
-15.5798
 20
108.4039
 30
0.0
  0
VERTEX
  5
6F3
  8
LAYER_1
 62
   250
 10
-15.6454
 20
108.4852
 30
0.0
  0
VERTEX
  5
6F4
  8
LAYER_1
 62
   250
 10
-15.7009
 20
108.5716
 30
0.0
  0
VERTEX
  5
6F5
  8
LAYER_1
 62
   250
 10
-15.7464
 20
108.6631
 30
0.0
  0
VERTEX
  5
6F6
  8
LAYER_1
 62
   250
 10
-15.7818
 20
108.7597
 30
0.0
  0
VERTEX
  5
6F7
  8
LAYER_1
 62
   250
 10
-15.8071
 20
108.8613
 30
0.0
  0
VERTEX
  5
6F8
  8
LAYER_1
 62
   250
 10
-15.8222
 20
108.968
 30
0.0
  0
VERTEX
  5
6F9
  8
LAYER_1
 62
   250
 10
-15.8273
 20
109.0796
 30
0.0
  0
VERTEX
  5
6FA
  8
LAYER_1
 62
   250
 10
-15.8198
 20
109.2113
 30
0.0
  0
VERTEX
  5
6FB
  8
LAYER_1
 62
   250
 10
-15.797
 20
109.337
 30
0.0
  0
VERTEX
  5
6FC
  8
LAYER_1
 62
   250
 10
-15.7589
 20
109.4567
 30
0.0
  0
VERTEX
  5
6FD
  8
LAYER_1
 62
   250
 10
-15.7051
 20
109.5706
 30
0.0
  0
VERTEX
  5
6FE
  8
LAYER_1
 62
   250
 10
-15.6395
 20
109.6761
 30
0.0
  0
VERTEX
  5
6FF
  8
LAYER_1
 62
   250
 10
-15.5642
 20
109.7707
 30
0.0
  0
VERTEX
  5
700
  8
LAYER_1
 62
   250
 10
-15.4796
 20
109.8541
 30
0.0
  0
VERTEX
  5
701
  8
LAYER_1
 62
   250
 10
-15.3855
 20
109.9266
 30
0.0
  0
VERTEX
  5
702
  8
LAYER_1
 62
   250
 10
-15.1746
 20
110.0445
 30
0.0
  0
VERTEX
  5
703
  8
LAYER_1
 62
   250
 10
-14.9391
 20
110.1299
 30
0.0
  0
VERTEX
  5
704
  8
LAYER_1
 62
   250
 10
-14.3893
 20
110.2227
 30
0.0
  0
VERTEX
  5
705
  8
LAYER_1
 62
   250
 10
-14.0386
 20
110.2696
 30
0.0
  0
VERTEX
  5
706
  8
LAYER_1
 62
   250
 10
-13.7374
 20
110.3208
 30
0.0
  0
VERTEX
  5
707
  8
LAYER_1
 62
   250
 10
-13.4857
 20
110.3763
 30
0.0
  0
VERTEX
  5
708
  8
LAYER_1
 62
   250
 10
-13.2837
 20
110.4365
 30
0.0
  0
VERTEX
  5
709
  8
LAYER_1
 62
   250
 10
-13.2802
 20
110.5974
 30
0.0
  0
VERTEX
  5
70A
  8
LAYER_1
 62
   250
 10
-13.2912
 20
110.7729
 30
0.0
  0
VERTEX
  5
70B
  8
LAYER_1
 62
   250
 10
-13.3243
 20
110.9205
 30
0.0
  0
VERTEX
  5
70C
  8
LAYER_1
 62
   250
 10
-13.3793
 20
111.0399
 30
0.0
  0
VERTEX
  5
70D
  8
LAYER_1
 62
   250
 10
-13.4564
 20
111.1308
 30
0.0
  0
VERTEX
  5
70E
  8
LAYER_1
 62
   250
 10
-13.5892
 20
111.2231
 30
0.0
  0
VERTEX
  5
70F
  8
LAYER_1
 62
   250
 10
-13.7512
 20
111.2888
 30
0.0
  0
VERTEX
  5
710
  8
LAYER_1
 62
   250
 10
-13.942
 20
111.3281
 30
0.0
  0
VERTEX
  5
711
  8
LAYER_1
 62
   250
 10
-14.1613
 20
111.3411
 30
0.0
  0
VERTEX
  5
712
  8
LAYER_1
 62
   250
 10
-14.3655
 20
111.3316
 30
0.0
  0
VERTEX
  5
713
  8
LAYER_1
 62
   250
 10
-14.5413
 20
111.3031
 30
0.0
  0
VERTEX
  5
714
  8
LAYER_1
 62
   250
 10
-14.6885
 20
111.2554
 30
0.0
  0
VERTEX
  5
715
  8
LAYER_1
 62
   250
 10
-14.8075
 20
111.1884
 30
0.0
  0
VERTEX
  5
716
  8
LAYER_1
 62
   250
 10
-14.9046
 20
111.097
 30
0.0
  0
VERTEX
  5
717
  8
LAYER_1
 62
   250
 10
-14.9883
 20
110.9761
 30
0.0
  0
VERTEX
  5
718
  8
LAYER_1
 62
   250
 10
-15.0584
 20
110.8256
 30
0.0
  0
VERTEX
  5
719
  8
LAYER_1
 62
   250
 10
-15.1153
 20
110.6456
 30
0.0
  0
VERTEX
  5
71A
  8
LAYER_1
 62
   250
 10
-15.7204
 20
110.729
 30
0.0
  0
VERTEX
  5
71B
  8
LAYER_1
 62
   250
 10
-15.6723
 20
110.9138
 30
0.0
  0
VERTEX
  5
71C
  8
LAYER_1
 62
   250
 10
-15.6111
 20
111.0802
 30
0.0
  0
VERTEX
  5
71D
  8
LAYER_1
 62
   250
 10
-15.5367
 20
111.2278
 30
0.0
  0
VERTEX
  5
71E
  8
LAYER_1
 62
   250
 10
-15.449
 20
111.3564
 30
0.0
  0
VERTEX
  5
71F
  8
LAYER_1
 62
   250
 10
-15.344
 20
111.4694
 30
0.0
  0
VERTEX
  5
720
  8
LAYER_1
 62
   250
 10
-15.2176
 20
111.5686
 30
0.0
  0
VERTEX
  5
721
  8
LAYER_1
 62
   250
 10
-15.07
 20
111.6539
 30
0.0
  0
VERTEX
  5
722
  8
LAYER_1
 62
   250
 10
-14.9015
 20
111.7253
 30
0.0
  0
VERTEX
  5
723
  8
LAYER_1
 62
   250
 10
-14.7156
 20
111.7817
 30
0.0
  0
VERTEX
  5
724
  8
LAYER_1
 62
   250
 10
-14.5154
 20
111.8221
 30
0.0
  0
VERTEX
  5
725
  8
LAYER_1
 62
   250
 10
-14.301
 20
111.8464
 30
0.0
  0
VERTEX
  5
726
  8
LAYER_1
 62
   250
 10
-14.0721
 20
111.8545
 30
0.0
  0
VERTEX
  5
727
  8
LAYER_1
 62
   250
 10
-13.8489
 20
111.8475
 30
0.0
  0
VERTEX
  5
728
  8
LAYER_1
 62
   250
 10
-13.648
 20
111.8266
 30
0.0
  0
VERTEX
  5
729
  8
LAYER_1
 62
   250
 10
-13.469
 20
111.7921
 30
0.0
  0
VERTEX
  5
72A
  8
LAYER_1
 62
   250
 10
-13.3119
 20
111.7441
 30
0.0
  0
VERTEX
  5
72B
  8
LAYER_1
 62
   250
 10
-13.1753
 20
111.6852
 30
0.0
  0
VERTEX
  5
72C
  8
LAYER_1
 62
   250
 10
-13.058
 20
111.6196
 30
0.0
  0
VERTEX
  5
72D
  8
LAYER_1
 62
   250
 10
-12.9599
 20
111.5468
 30
0.0
  0
VERTEX
  5
72E
  8
LAYER_1
 62
   250
 10
-12.8808
 20
111.4668
 30
0.0
  0
VERTEX
  5
72F
  8
LAYER_1
 62
   250
 10
-12.8173
 20
111.3778
 30
0.0
  0
VERTEX
  5
730
  8
LAYER_1
 62
   250
 10
-12.7642
 20
111.278
 30
0.0
  0
VERTEX
  5
731
  8
LAYER_1
 62
   250
 10
-12.7212
 20
111.1671
 30
0.0
  0
VERTEX
  5
732
  8
LAYER_1
 62
   250
 10
-12.6881
 20
111.0451
 30
0.0
  0
VERTEX
  5
733
  8
LAYER_1
 62
   250
 10
-12.6576
 20
110.4741
 30
0.0
  0
VERTEX
  5
734
  8
LAYER_1
 62
   250
 10
-12.6576
 20
109.6482
 30
0.0
  0
VERTEX
  5
735
  8
LAYER_1
 62
   250
 10
-12.6551
 20
109.2554
 30
0.0
  0
VERTEX
  5
736
  8
LAYER_1
 62
   250
 10
-12.6477
 20
108.9424
 30
0.0
  0
VERTEX
  5
737
  8
LAYER_1
 62
   250
 10
-12.6352
 20
108.7091
 30
0.0
  0
VERTEX
  5
738
  8
LAYER_1
 62
   250
 10
-12.6176
 20
108.5556
 30
0.0
  0
VERTEX
  5
739
  8
LAYER_1
 62
   250
 10
-12.5589
 20
108.3311
 30
0.0
  0
VERTEX
  5
73A
  8
LAYER_1
 62
   250
 10
-12.4614
 20
108.1162
 30
0.0
  0
VERTEX
  5
73B
  8
LAYER_1
 62
   250
 10
-13.1087
 20
108.1162
 30
0.0
  0
VERTEX
  5
73C
  8
LAYER_1
 62
   250
 10
-13.1522
 20
108.2164
 30
0.0
  0
VERTEX
  5
73D
  8
LAYER_1
 62
   250
 10
-13.1875
 20
108.325
 30
0.0
  0
VERTEX
  5
73E
  8
LAYER_1
 62
   250
 10
-13.2143
 20
108.442
 30
0.0
  0
VERTEX
  5
73F
  8
LAYER_1
 62
   250
 10
-13.2321
 20
108.5673
 30
0.0
  0
SEQEND
  5
740
  8
LAYER_1
 62
   250
  0
POLYLINE
  5
5A
  8
LAYER_1
 62
   250
 66
     1
 10
0.0
 20
0.0
 30
0.0
 70
     1
  0
VERTEX
  5
741
  8
LAYER_1
 62
   250
 10
-13.2837
 20
109.9513
 30
0.0
  0
VERTEX
  5
742
  8
LAYER_1
 62
   250
 10
-13.4738
 20
109.8845
 30
0.0
  0
VERTEX
  5
743
  8
LAYER_1
 62
   250
 10
-13.7058
 20
109.8232
 30
0.0
  0
VERTEX
  5
744
  8
LAYER_1
 62
   250
 10
-13.9796
 20
109.7672
 30
0.0
  0
VERTEX
  5
745
  8
LAYER_1
 62
   250
 10
-14.2953
 20
109.7163
 30
0.0
  0
VERTEX
  5
746
  8
LAYER_1
 62
   250
 10
-14.6219
 20
109.6582
 30
0.0
  0
VERTEX
  5
747
  8
LAYER_1
 62
   250
 10
-14.8357
 20
109.593
 30
0.0
  0
VERTEX
  5
748
  8
LAYER_1
 62
   250
 10
-14.9105
 20
109.5546
 30
0.0
  0
VERTEX
  5
749
  8
LAYER_1
 62
   250
 10
-14.9764
 20
109.5082
 30
0.0
  0
VERTEX
  5
74A
  8
LAYER_1
 62
   250
 10
-15.033
 20
109.4537
 30
0.0
  0
VERTEX
  5
74B
  8
LAYER_1
 62
   250
 10
-15.0801
 20
109.3909
 30
0.0
  0
VERTEX
  5
74C
  8
LAYER_1
 62
   250
 10
-15.1179
 20
109.323
 30
0.0
  0
VERTEX
  5
74D
  8
LAYER_1
 62
   250
 10
-15.1451
 20
109.2516
 30
0.0
  0
VERTEX
  5
74E
  8
LAYER_1
 62
   250
 10
-15.1615
 20
109.1763
 30
0.0
  0
VERTEX
  5
74F
  8
LAYER_1
 62
   250
 10
-15.167
 20
109.0972
 30
0.0
  0
VERTEX
  5
750
  8
LAYER_1
 62
   250
 10
-15.1551
 20
108.9782
 30
0.0
  0
VERTEX
  5
751
  8
LAYER_1
 62
   250
 10
-15.1197
 20
108.8697
 30
0.0
  0
VERTEX
  5
752
  8
LAYER_1
 62
   250
 10
-15.0609
 20
108.7715
 30
0.0
  0
VERTEX
  5
753
  8
LAYER_1
 62
   250
 10
-14.979
 20
108.6836
 30
0.0
  0
VERTEX
  5
754
  8
LAYER_1
 62
   250
 10
-14.8746
 20
108.6118
 30
0.0
  0
VERTEX
  5
755
  8
LAYER_1
 62
   250
 10
-14.7483
 20
108.5605
 30
0.0
  0
VERTEX
  5
756
  8
LAYER_1
 62
   250
 10
-14.6002
 20
108.5295
 30
0.0
  0
VERTEX
  5
757
  8
LAYER_1
 62
   250
 10
-14.4304
 20
108.5192
 30
0.0
  0
VERTEX
  5
758
  8
LAYER_1
 62
   250
 10
-14.2564
 20
108.5289
 30
0.0
  0
VERTEX
  5
759
  8
LAYER_1
 62
   250
 10
-14.0922
 20
108.5581
 30
0.0
  0
VERTEX
  5
75A
  8
LAYER_1
 62
   250
 10
-13.9379
 20
108.6069
 30
0.0
  0
VERTEX
  5
75B
  8
LAYER_1
 62
   250
 10
-13.7936
 20
108.6754
 30
0.0
  0
VERTEX
  5
75C
  8
LAYER_1
 62
   250
 10
-13.6635
 20
108.7611
 30
0.0
  0
VERTEX
  5
75D
  8
LAYER_1
 62
   250
 10
-13.5516
 20
108.8612
 30
0.0
  0
VERTEX
  5
75E
  8
LAYER_1
 62
   250
 10
-13.4582
 20
108.9756
 30
0.0
  0
VERTEX
  5
75F
  8
LAYER_1
 62
   250
 10
-13.3836
 20
109.1042
 30
0.0
  0
VERTEX
  5
760
  8
LAYER_1
 62
   250
 10
-13.3397
 20
109.2216
 30
0.0
  0
VERTEX
  5
761
  8
LAYER_1
 62
   250
 10
-13.3085
 20
109.364
 30
0.0
  0
VERTEX
  5
762
  8
LAYER_1
 62
   250
 10
-13.2899
 20
109.5313
 30
0.0
  0
VERTEX
  5
763
  8
LAYER_1
 62
   250
 10
-13.2837
 20
109.7234
 30
0.0
  0
VERTEX
  5
764
  8
LAYER_1
 62
   250
 10
-13.2837
 20
109.9513
 30
0.0
  0
SEQEND
  5
765
  8
LAYER_1
 62
   250
  0
POLYLINE
  5
5B
  8
LAYER_1
 62
   250
 66
     1
 10
0.0
 20
0.0
 30
0.0
 70
     1
  0
VERTEX
  5
766
  8
LAYER_1
 62
   250
 10
-10.5558
 20
108.6707
 30
0.0
  0
VERTEX
  5
767
  8
LAYER_1
 62
   250
 10
-10.4665
 20
108.1232
 30
0.0
  0
VERTEX
  5
768
  8
LAYER_1
 62
   250
 10
-10.9341
 20
108.068
 30
0.0
  0
VERTEX
  5
769
  8
LAYER_1
 62
   250
 10
-11.0936
 20
108.0746
 30
0.0
  0
VERTEX
  5
76A
  8
LAYER_1
 62
   250
 10
-11.234
 20
108.0946
 30
0.0
  0
VERTEX
  5
76B
  8
LAYER_1
 62
   250
 10
-11.3554
 20
108.128
 30
0.0
  0
VERTEX
  5
76C
  8
LAYER_1
 62
   250
 10
-11.4581
 20
108.1749
 30
0.0
  0
VERTEX
  5
76D
  8
LAYER_1
 62
   250
 10
-11.5438
 20
108.2322
 30
0.0
  0
VERTEX
  5
76E
  8
LAYER_1
 62
   250
 10
-11.6158
 20
108.2981
 30
0.0
  0
VERTEX
  5
76F
  8
LAYER_1
 62
   250
 10
-11.6742
 20
108.3727
 30
0.0
  0
VERTEX
  5
770
  8
LAYER_1
 62
   250
 10
-11.7189
 20
108.4557
 30
0.0
  0
VERTEX
  5
771
  8
LAYER_1
 62
   250
 10
-11.7521
 20
108.5663
 30
0.0
  0
VERTEX
  5
772
  8
LAYER_1
 62
   250
 10
-11.776
 20
108.7251
 30
0.0
  0
VERTEX
  5
773
  8
LAYER_1
 62
   250
 10
-11.7905
 20
108.9319
 30
0.0
  0
VERTEX
  5
774
  8
LAYER_1
 62
   250
 10
-11.7953
 20
109.1865
 30
0.0
  0
VERTEX
  5
775
  8
LAYER_1
 62
   250
 10
-11.7953
 20
111.2894
 30
0.0
  0
VERTEX
  5
776
  8
LAYER_1
 62
   250
 10
-12.2499
 20
111.2894
 30
0.0
  0
VERTEX
  5
777
  8
LAYER_1
 62
   250
 10
-12.2499
 20
111.7711
 30
0.0
  0
VERTEX
  5
778
  8
LAYER_1
 62
   250
 10
-11.7953
 20
111.7711
 30
0.0
  0
VERTEX
  5
779
  8
LAYER_1
 62
   250
 10
-11.7953
 20
112.6769
 30
0.0
  0
VERTEX
  5
77A
  8
LAYER_1
 62
   250
 10
-11.1785
 20
113.0482
 30
0.0
  0
VERTEX
  5
77B
  8
LAYER_1
 62
   250
 10
-11.1785
 20
111.7711
 30
0.0
  0
VERTEX
  5
77C
  8
LAYER_1
 62
   250
 10
-10.5558
 20
111.7711
 30
0.0
  0
VERTEX
  5
77D
  8
LAYER_1
 62
   250
 10
-10.5558
 20
111.2894
 30
0.0
  0
VERTEX
  5
77E
  8
LAYER_1
 62
   250
 10
-11.1785
 20
111.2894
 30
0.0
  0
VERTEX
  5
77F
  8
LAYER_1
 62
   250
 10
-11.1785
 20
109.1524
 30
0.0
  0
VERTEX
  5
780
  8
LAYER_1
 62
   250
 10
-11.1468
 20
108.8117
 30
0.0
  0
VERTEX
  5
781
  8
LAYER_1
 62
   250
 10
-11.0399
 20
108.6907
 30
0.0
  0
VERTEX
  5
782
  8
LAYER_1
 62
   250
 10
-10.8284
 20
108.646
 30
0.0
  0
VERTEX
  5
783
  8
LAYER_1
 62
   250
 10
-10.5558
 20
108.6707
 30
0.0
  0
SEQEND
  5
784
  8
LAYER_1
 62
   250
  0
POLYLINE
  5
5C
  8
LAYER_1
 62
   250
 66
     1
 10
0.0
 20
0.0
 30
0.0
 70
     1
  0
VERTEX
  5
785
  8
LAYER_1
 62
   250
 10
-6.7435
 20
109.2934
 30
0.0
  0
VERTEX
  5
786
  8
LAYER_1
 62
   250
 10
-6.1033
 20
109.2147
 30
0.0
  0
VERTEX
  5
787
  8
LAYER_1
 62
   250
 10
-6.1452
 20
109.0781
 30
0.0
  0
VERTEX
  5
788
  8
LAYER_1
 62
   250
 10
-6.1951
 20
108.9494
 30
0.0
  0
VERTEX
  5
789
  8
LAYER_1
 62
   250
 10
-6.2531
 20
108.8287
 30
0.0
  0
VERTEX
  5
78A
  8
LAYER_1
 62
   250
 10
-6.3192
 20
108.7158
 30
0.0
  0
VERTEX
  5
78B
  8
LAYER_1
 62
   250
 10
-6.3932
 20
108.6108
 30
0.0
  0
VERTEX
  5
78C
  8
LAYER_1
 62
   250
 10
-6.4753
 20
108.5137
 30
0.0
  0
VERTEX
  5
78D
  8
LAYER_1
 62
   250
 10
-6.5655
 20
108.4244
 30
0.0
  0
VERTEX
  5
78E
  8
LAYER_1
 62
   250
 10
-6.6637
 20
108.3429
 30
0.0
  0
VERTEX
  5
78F
  8
LAYER_1
 62
   250
 10
-6.7699
 20
108.2706
 30
0.0
  0
VERTEX
  5
790
  8
LAYER_1
 62
   250
 10
-6.8831
 20
108.2079
 30
0.0
  0
VERTEX
  5
791
  8
LAYER_1
 62
   250
 10
-7.0033
 20
108.1548
 30
0.0
  0
VERTEX
  5
792
  8
LAYER_1
 62
   250
 10
-7.1307
 20
108.1114
 30
0.0
  0
VERTEX
  5
793
  8
LAYER_1
 62
   250
 10
-7.265
 20
108.0775
 30
0.0
  0
VERTEX
  5
794
  8
LAYER_1
 62
   250
 10
-7.4064
 20
108.0534
 30
0.0
  0
VERTEX
  5
795
  8
LAYER_1
 62
   250
 10
-7.5549
 20
108.0388
 30
0.0
  0
VERTEX
  5
796
  8
LAYER_1
 62
   250
 10
-7.7104
 20
108.034
 30
0.0
  0
VERTEX
  5
797
  8
LAYER_1
 62
   250
 10
-7.9057
 20
108.0417
 30
0.0
  0
VERTEX
  5
798
  8
LAYER_1
 62
   250
 10
-8.0906
 20
108.0648
 30
0.0
  0
VERTEX
  5
799
  8
LAYER_1
 62
   250
 10
-8.2651
 20
108.1034
 30
0.0
  0
VERTEX
  5
79A
  8
LAYER_1
 62
   250
 10
-8.4293
 20
108.1573
 30
0.0
  0
VERTEX
  5
79B
  8
LAYER_1
 62
   250
 10
-8.583
 20
108.2267
 30
0.0
  0
VERTEX
  5
79C
  8
LAYER_1
 62
   250
 10
-8.7263
 20
108.3115
 30
0.0
  0
VERTEX
  5
79D
  8
LAYER_1
 62
   250
 10
-8.8592
 20
108.4117
 30
0.0
  0
VERTEX
  5
79E
  8
LAYER_1
 62
   250
 10
-8.9816
 20
108.5274
 30
0.0
  0
VERTEX
  5
79F
  8
LAYER_1
 62
   250
 10
-9.0919
 20
108.657
 30
0.0
  0
VERTEX
  5
7A0
  8
LAYER_1
 62
   250
 10
-9.1874
 20
108.799
 30
0.0
  0
VERTEX
  5
7A1
  8
LAYER_1
 62
   250
 10
-9.2681
 20
108.9535
 30
0.0
  0
VERTEX
  5
7A2
  8
LAYER_1
 62
   250
 10
-9.3342
 20
109.1204
 30
0.0
  0
VERTEX
  5
7A3
  8
LAYER_1
 62
   250
 10
-9.3855
 20
109.2998
 30
0.0
  0
VERTEX
  5
7A4
  8
LAYER_1
 62
   250
 10
-9.4222
 20
109.4916
 30
0.0
  0
VERTEX
  5
7A5
  8
LAYER_1
 62
   250
 10
-9.4442
 20
109.6958
 30
0.0
  0
VERTEX
  5
7A6
  8
LAYER_1
 62
   250
 10
-9.4515
 20
109.9125
 30
0.0
  0
VERTEX
  5
7A7
  8
LAYER_1
 62
   250
 10
-9.4441
 20
110.1369
 30
0.0
  0
VERTEX
  5
7A8
  8
LAYER_1
 62
   250
 10
-9.4218
 20
110.3482
 30
0.0
  0
VERTEX
  5
7A9
  8
LAYER_1
 62
   250
 10
-9.3847
 20
110.5466
 30
0.0
  0
VERTEX
  5
7AA
  8
LAYER_1
 62
   250
 10
-9.3327
 20
110.7321
 30
0.0
  0
VERTEX
  5
7AB
  8
LAYER_1
 62
   250
 10
-9.2659
 20
110.9046
 30
0.0
  0
VERTEX
  5
7AC
  8
LAYER_1
 62
   250
 10
-9.1844
 20
111.0642
 30
0.0
  0
VERTEX
  5
7AD
  8
LAYER_1
 62
   250
 10
-9.088
 20
111.2108
 30
0.0
  0
VERTEX
  5
7AE
  8
LAYER_1
 62
   250
 10
-8.9769
 20
111.3446
 30
0.0
  0
VERTEX
  5
7AF
  8
LAYER_1
 62
   250
 10
-8.8536
 20
111.464
 30
0.0
  0
VERTEX
  5
7B0
  8
LAYER_1
 62
   250
 10
-8.7216
 20
111.5675
 30
0.0
  0
VERTEX
  5
7B1
  8
LAYER_1
 62
   250
 10
-8.5808
 20
111.6552
 30
0.0
  0
VERTEX
  5
7B2
  8
LAYER_1
 62
   250
 10
-8.4312
 20
111.7269
 30
0.0
  0
VERTEX
  5
7B3
  8
LAYER_1
 62
   250
 10
-8.2728
 20
111.7827
 30
0.0
  0
VERTEX
  5
7B4
  8
LAYER_1
 62
   250
 10
-8.1056
 20
111.8226
 30
0.0
  0
VERTEX
  5
7B5
  8
LAYER_1
 62
   250
 10
-7.9295
 20
111.8465
 30
0.0
  0
VERTEX
  5
7B6
  8
LAYER_1
 62
   250
 10
-7.7445
 20
111.8545
 30
0.0
  0
VERTEX
  5
7B7
  8
LAYER_1
 62
   250
 10
-7.5654
 20
111.8467
 30
0.0
  0
VERTEX
  5
7B8
  8
LAYER_1
 62
   250
 10
-7.3947
 20
111.8232
 30
0.0
  0
VERTEX
  5
7B9
  8
LAYER_1
 62
   250
 10
-7.2324
 20
111.7842
 30
0.0
  0
VERTEX
  5
7BA
  8
LAYER_1
 62
   250
 10
-7.0785
 20
111.7295
 30
0.0
  0
VERTEX
  5
7BB
  8
LAYER_1
 62
   250
 10
-6.933
 20
111.6593
 30
0.0
  0
VERTEX
  5
7BC
  8
LAYER_1
 62
   250
 10
-6.796
 20
111.5735
 30
0.0
  0
VERTEX
  5
7BD
  8
LAYER_1
 62
   250
 10
-6.6674
 20
111.4721
 30
0.0
  0
VERTEX
  5
7BE
  8
LAYER_1
 62
   250
 10
-6.5473
 20
111.3552
 30
0.0
  0
VERTEX
  5
7BF
  8
LAYER_1
 62
   250
 10
-6.4383
 20
111.2241
 30
0.0
  0
VERTEX
  5
7C0
  8
LAYER_1
 62
   250
 10
-6.3438
 20
111.0803
 30
0.0
  0
VERTEX
  5
7C1
  8
LAYER_1
 62
   250
 10
-6.2638
 20
110.9238
 30
0.0
  0
VERTEX
  5
7C2
  8
LAYER_1
 62
   250
 10
-6.1984
 20
110.7546
 30
0.0
  0
VERTEX
  5
7C3
  8
LAYER_1
 62
   250
 10
-6.1475
 20
110.5727
 30
0.0
  0
VERTEX
  5
7C4
  8
LAYER_1
 62
   250
 10
-6.1112
 20
110.3782
 30
0.0
  0
VERTEX
  5
7C5
  8
LAYER_1
 62
   250
 10
-6.0894
 20
110.171
 30
0.0
  0
VERTEX
  5
7C6
  8
LAYER_1
 62
   250
 10
-6.0821
 20
109.9513
 30
0.0
  0
VERTEX
  5
7C7
  8
LAYER_1
 62
   250
 10
-6.0856
 20
109.7856
 30
0.0
  0
VERTEX
  5
7C8
  8
LAYER_1
 62
   250
 10
-8.8113
 20
109.7856
 30
0.0
  0
VERTEX
  5
7C9
  8
LAYER_1
 62
   250
 10
-8.7986
 20
109.6393
 30
0.0
  0
VERTEX
  5
7CA
  8
LAYER_1
 62
   250
 10
-8.7774
 20
109.5019
 30
0.0
  0
VERTEX
  5
7CB
  8
LAYER_1
 62
   250
 10
-8.7476
 20
109.3733
 30
0.0
  0
VERTEX
  5
7CC
  8
LAYER_1
 62
   250
 10
-8.7092
 20
109.2536
 30
0.0
  0
VERTEX
  5
7CD
  8
LAYER_1
 62
   250
 10
-8.6623
 20
109.1427
 30
0.0
  0
VERTEX
  5
7CE
  8
LAYER_1
 62
   250
 10
-8.6069
 20
109.0407
 30
0.0
  0
VERTEX
  5
7CF
  8
LAYER_1
 62
   250
 10
-8.543
 20
108.9476
 30
0.0
  0
VERTEX
  5
7D0
  8
LAYER_1
 62
   250
 10
-8.4706
 20
108.8634
 30
0.0
  0
VERTEX
  5
7D1
  8
LAYER_1
 62
   250
 10
-8.3916
 20
108.7882
 30
0.0
  0
VERTEX
  5
7D2
  8
LAYER_1
 62
   250
 10
-8.308
 20
108.7231
 30
0.0
  0
VERTEX
  5
7D3
  8
LAYER_1
 62
   250
 10
-8.2196
 20
108.668
 30
0.0
  0
VERTEX
  5
7D4
  8
LAYER_1
 62
   250
 10
-8.1266
 20
108.6229
 30
0.0
  0
VERTEX
  5
7D5
  8
LAYER_1
 62
   250
 10
-8.0289
 20
108.5878
 30
0.0
  0
VERTEX
  5
7D6
  8
LAYER_1
 62
   250
 10
-7.9264
 20
108.5627
 30
0.0
  0
VERTEX
  5
7D7
  8
LAYER_1
 62
   250
 10
-7.819
 20
108.5477
 30
0.0
  0
VERTEX
  5
7D8
  8
LAYER_1
 62
   250
 10
-7.7069
 20
108.5427
 30
0.0
  0
VERTEX
  5
7D9
  8
LAYER_1
 62
   250
 10
-7.543
 20
108.5539
 30
0.0
  0
VERTEX
  5
7DA
  8
LAYER_1
 62
   250
 10
-7.3915
 20
108.5876
 30
0.0
  0
VERTEX
  5
7DB
  8
LAYER_1
 62
   250
 10
-7.2523
 20
108.6438
 30
0.0
  0
VERTEX
  5
7DC
  8
LAYER_1
 62
   250
 10
-7.1254
 20
108.7224
 30
0.0
  0
VERTEX
  5
7DD
  8
LAYER_1
 62
   250
 10
-7.011
 20
108.8249
 30
0.0
  0
VERTEX
  5
7DE
  8
LAYER_1
 62
   250
 10
-6.9093
 20
108.9542
 30
0.0
  0
VERTEX
  5
7DF
  8
LAYER_1
 62
   250
 10
-6.8202
 20
109.1103
 30
0.0
  0
VERTEX
  5
7E0
  8
LAYER_1
 62
   250
 10
-6.7435
 20
109.2934
 30
0.0
  0
SEQEND
  5
7E1
  8
LAYER_1
 62
   250
  0
POLYLINE
  5
5D
  8
LAYER_1
 62
   250
 66
     1
 10
0.0
 20
0.0
 30
0.0
 70
     1
  0
VERTEX
  5
7E2
  8
LAYER_1
 62
   250
 10
-8.7772
 20
110.2955
 30
0.0
  0
VERTEX
  5
7E3
  8
LAYER_1
 62
   250
 10
-6.7365
 20
110.2955
 30
0.0
  0
VERTEX
  5
7E4
  8
LAYER_1
 62
   250
 10
-6.7664
 20
110.5113
 30
0.0
  0
VERTEX
  5
7E5
  8
LAYER_1
 62
   250
 10
-6.8155
 20
110.6986
 30
0.0
  0
VERTEX
  5
7E6
  8
LAYER_1
 62
   250
 10
-6.8835
 20
110.8571
 30
0.0
  0
VERTEX
  5
7E7
  8
LAYER_1
 62
   250
 10
-6.9703
 20
110.9863
 30
0.0
  0
VERTEX
  5
7E8
  8
LAYER_1
 62
   250
 10
-7.0471
 20
111.0702
 30
0.0
  0
VERTEX
  5
7E9
  8
LAYER_1
 62
   250
 10
-7.1293
 20
111.1429
 30
0.0
  0
VERTEX
  5
7EA
  8
LAYER_1
 62
   250
 10
-7.2171
 20
111.2045
 30
0.0
  0
VERTEX
  5
7EB
  8
LAYER_1
 62
   250
 10
-7.3103
 20
111.2549
 30
0.0
  0
VERTEX
  5
7EC
  8
LAYER_1
 62
   250
 10
-7.4089
 20
111.2941
 30
0.0
  0
VERTEX
  5
7ED
  8
LAYER_1
 62
   250
 10
-7.513
 20
111.3222
 30
0.0
  0
VERTEX
  5
7EE
  8
LAYER_1
 62
   250
 10
-7.6226
 20
111.339
 30
0.0
  0
VERTEX
  5
7EF
  8
LAYER_1
 62
   250
 10
-7.7375
 20
111.3446
 30
0.0
  0
VERTEX
  5
7F0
  8
LAYER_1
 62
   250
 10
-7.9423
 20
111.3268
 30
0.0
  0
VERTEX
  5
7F1
  8
LAYER_1
 62
   250
 10
-8.1303
 20
111.2733
 30
0.0
  0
VERTEX
  5
7F2
  8
LAYER_1
 62
   250
 10
-8.3013
 20
111.1841
 30
0.0
  0
VERTEX
  5
7F3
  8
LAYER_1
 62
   250
 10
-8.4553
 20
111.0592
 30
0.0
  0
VERTEX
  5
7F4
  8
LAYER_1
 62
   250
 10
-8.5239
 20
110.9848
 30
0.0
  0
VERTEX
  5
7F5
  8
LAYER_1
 62
   250
 10
-8.5844
 20
110.9043
 30
0.0
  0
VERTEX
  5
7F6
  8
LAYER_1
 62
   250
 10
-8.6367
 20
110.8178
 30
0.0
  0
VERTEX
  5
7F7
  8
LAYER_1
 62
   250
 10
-8.681
 20
110.7254
 30
0.0
  0
VERTEX
  5
7F8
  8
LAYER_1
 62
   250
 10
-8.7452
 20
110.5224
 30
0.0
  0
VERTEX
  5
7F9
  8
LAYER_1
 62
   250
 10
-8.7772
 20
110.2955
 30
0.0
  0
SEQEND
  5
7FA
  8
LAYER_1
 62
   250
  0
POLYLINE
  5
5E
  8
LAYER_1
 62
   250
 66
     1
 10
0.0
 20
0.0
 30
0.0
 70
     1
  0
VERTEX
  5
7FB
  8
LAYER_1
 62
   250
 10
-45.4188
 20
99.6153
 30
0.0
  0
VERTEX
  5
7FC
  8
LAYER_1
 62
   250
 10
-45.4188
 20
101.8881
 30
0.0
  0
VERTEX
  5
7FD
  8
LAYER_1
 62
   250
 10
-45.14
 20
101.8881
 30
0.0
  0
VERTEX
  5
7FE
  8
LAYER_1
 62
   250
 10
-45.14
 20
101.0726
 30
0.0
  0
VERTEX
  5
7FF
  8
LAYER_1
 62
   250
 10
-45.0359
 20
101.1716
 30
0.0
  0
VERTEX
  5
800
  8
LAYER_1
 62
   250
 10
-44.919
 20
101.2424
 30
0.0
  0
VERTEX
  5
801
  8
LAYER_1
 62
   250
 10
-44.7893
 20
101.2849
 30
0.0
  0
VERTEX
  5
802
  8
LAYER_1
 62
   250
 10
-44.6468
 20
101.2991
 30
0.0
  0
VERTEX
  5
803
  8
LAYER_1
 62
   250
 10
-44.5585
 20
101.2946
 30
0.0
  0
VERTEX
  5
804
  8
LAYER_1
 62
   250
 10
-44.4762
 20
101.2809
 30
0.0
  0
VERTEX
  5
805
  8
LAYER_1
 62
   250
 10
-44.3998
 20
101.2583
 30
0.0
  0
VERTEX
  5
806
  8
LAYER_1
 62
   250
 10
-44.3293
 20
101.2266
 30
0.0
  0
VERTEX
  5
807
  8
LAYER_1
 62
   250
 10
-44.2666
 20
101.1873
 30
0.0
  0
VERTEX
  5
808
  8
LAYER_1
 62
   250
 10
-44.2135
 20
101.141
 30
0.0
  0
VERTEX
  5
809
  8
LAYER_1
 62
   250
 10
-44.17
 20
101.0877
 30
0.0
  0
VERTEX
  5
80A
  8
LAYER_1
 62
   250
 10
-44.1361
 20
101.0276
 30
0.0
  0
VERTEX
  5
80B
  8
LAYER_1
 62
   250
 10
-44.0925
 20
100.8718
 30
0.0
  0
VERTEX
  5
80C
  8
LAYER_1
 62
   250
 10
-44.0779
 20
100.6588
 30
0.0
  0
VERTEX
  5
80D
  8
LAYER_1
 62
   250
 10
-44.0779
 20
99.6153
 30
0.0
  0
VERTEX
  5
80E
  8
LAYER_1
 62
   250
 10
-44.3573
 20
99.6153
 30
0.0
  0
VERTEX
  5
80F
  8
LAYER_1
 62
   250
 10
-44.3573
 20
100.6588
 30
0.0
  0
VERTEX
  5
810
  8
LAYER_1
 62
   250
 10
-44.363
 20
100.7561
 30
0.0
  0
VERTEX
  5
811
  8
LAYER_1
 62
   250
 10
-44.3799
 20
100.8393
 30
0.0
  0
VERTEX
  5
812
  8
LAYER_1
 62
   250
 10
-44.4082
 20
100.9083
 30
0.0
  0
VERTEX
  5
813
  8
LAYER_1
 62
   250
 10
-44.4478
 20
100.9631
 30
0.0
  0
VERTEX
  5
814
  8
LAYER_1
 62
   250
 10
-44.4978
 20
101.0049
 30
0.0
  0
VERTEX
  5
815
  8
LAYER_1
 62
   250
 10
-44.5573
 20
101.0348
 30
0.0
  0
VERTEX
  5
816
  8
LAYER_1
 62
   250
 10
-44.6262
 20
101.0529
 30
0.0
  0
VERTEX
  5
817
  8
LAYER_1
 62
   250
 10
-44.7045
 20
101.0589
 30
0.0
  0
VERTEX
  5
818
  8
LAYER_1
 62
   250
 10
-44.8247
 20
101.0427
 30
0.0
  0
VERTEX
  5
819
  8
LAYER_1
 62
   250
 10
-44.9378
 20
100.9943
 30
0.0
  0
VERTEX
  5
81A
  8
LAYER_1
 62
   250
 10
-45.0315
 20
100.9185
 30
0.0
  0
VERTEX
  5
81B
  8
LAYER_1
 62
   250
 10
-45.0934
 20
100.8197
 30
0.0
  0
VERTEX
  5
81C
  8
LAYER_1
 62
   250
 10
-45.14
 20
100.5159
 30
0.0
  0
VERTEX
  5
81D
  8
LAYER_1
 62
   250
 10
-45.14
 20
99.6153
 30
0.0
  0
VERTEX
  5
81E
  8
LAYER_1
 62
   250
 10
-45.4188
 20
99.6153
 30
0.0
  0
SEQEND
  5
81F
  8
LAYER_1
 62
   250
  0
POLYLINE
  5
5F
  8
LAYER_1
 62
   250
 66
     1
 10
0.0
 20
0.0
 30
0.0
 70
     1
  0
VERTEX
  5
820
  8
LAYER_1
 62
   250
 10
-43.7255
 20
100.4387
 30
0.0
  0
VERTEX
  5
821
  8
LAYER_1
 62
   250
 10
-43.7096
 20
100.6525
 30
0.0
  0
VERTEX
  5
822
  8
LAYER_1
 62
   250
 10
-43.6619
 20
100.8367
 30
0.0
  0
VERTEX
  5
823
  8
LAYER_1
 62
   250
 10
-43.6261
 20
100.9176
 30
0.0
  0
VERTEX
  5
824
  8
LAYER_1
 62
   250
 10
-43.5824
 20
100.9912
 30
0.0
  0
VERTEX
  5
825
  8
LAYER_1
 62
   250
 10
-43.5307
 20
101.0573
 30
0.0
  0
VERTEX
  5
826
  8
LAYER_1
 62
   250
 10
-43.471
 20
101.116
 30
0.0
  0
VERTEX
  5
827
  8
LAYER_1
 62
   250
 10
-43.3592
 20
101.196
 30
0.0
  0
VERTEX
  5
828
  8
LAYER_1
 62
   250
 10
-43.2356
 20
101.2532
 30
0.0
  0
VERTEX
  5
829
  8
LAYER_1
 62
   250
 10
-43.1004
 20
101.2876
 30
0.0
  0
VERTEX
  5
82A
  8
LAYER_1
 62
   250
 10
-42.9534
 20
101.2991
 30
0.0
  0
VERTEX
  5
82B
  8
LAYER_1
 62
   250
 10
-42.7913
 20
101.2852
 30
0.0
  0
VERTEX
  5
82C
  8
LAYER_1
 62
   250
 10
-42.6447
 20
101.2435
 30
0.0
  0
VERTEX
  5
82D
  8
LAYER_1
 62
   250
 10
-42.5137
 20
101.1738
 30
0.0
  0
VERTEX
  5
82E
  8
LAYER_1
 62
   250
 10
-42.3983
 20
101.0763
 30
0.0
  0
VERTEX
  5
82F
  8
LAYER_1
 62
   250
 10
-42.304
 20
100.9546
 30
0.0
  0
VERTEX
  5
830
  8
LAYER_1
 62
   250
 10
-42.2367
 20
100.8116
 30
0.0
  0
VERTEX
  5
831
  8
LAYER_1
 62
   250
 10
-42.1964
 20
100.6474
 30
0.0
  0
VERTEX
  5
832
  8
LAYER_1
 62
   250
 10
-42.183
 20
100.462
 30
0.0
  0
VERTEX
  5
833
  8
LAYER_1
 62
   250
 10
-42.1889
 20
100.3114
 30
0.0
  0
VERTEX
  5
834
  8
LAYER_1
 62
   250
 10
-42.2068
 20
100.1778
 30
0.0
  0
VERTEX
  5
835
  8
LAYER_1
 62
   250
 10
-42.2365
 20
100.0613
 30
0.0
  0
VERTEX
  5
836
  8
LAYER_1
 62
   250
 10
-42.2782
 20
99.9619
 30
0.0
  0
VERTEX
  5
837
  8
LAYER_1
 62
   250
 10
-42.3313
 20
99.8758
 30
0.0
  0
VERTEX
  5
838
  8
LAYER_1
 62
   250
 10
-42.3952
 20
99.7999
 30
0.0
  0
VERTEX
  5
839
  8
LAYER_1
 62
   250
 10
-42.47
 20
99.7343
 30
0.0
  0
VERTEX
  5
83A
  8
LAYER_1
 62
   250
 10
-42.5555
 20
99.6788
 30
0.0
  0
VERTEX
  5
83B
  8
LAYER_1
 62
   250
 10
-42.6488
 20
99.6347
 30
0.0
  0
VERTEX
  5
83C
  8
LAYER_1
 62
   250
 10
-42.7461
 20
99.6034
 30
0.0
  0
VERTEX
  5
83D
  8
LAYER_1
 62
   250
 10
-42.8476
 20
99.5846
 30
0.0
  0
VERTEX
  5
83E
  8
LAYER_1
 62
   250
 10
-42.9534
 20
99.5783
 30
0.0
  0
VERTEX
  5
83F
  8
LAYER_1
 62
   250
 10
-43.1178
 20
99.5921
 30
0.0
  0
VERTEX
  5
840
  8
LAYER_1
 62
   250
 10
-43.2658
 20
99.6336
 30
0.0
  0
VERTEX
  5
841
  8
LAYER_1
 62
   250
 10
-43.3972
 20
99.7028
 30
0.0
  0
VERTEX
  5
842
  8
LAYER_1
 62
   250
 10
-43.5122
 20
99.8
 30
0.0
  0
VERTEX
  5
843
  8
LAYER_1
 62
   250
 10
-43.6056
 20
99.9229
 30
0.0
  0
VERTEX
  5
844
  8
LAYER_1
 62
   250
 10
-43.6723
 20
100.0703
 30
0.0
  0
VERTEX
  5
845
  8
LAYER_1
 62
   250
 10
-43.7122
 20
100.2422
 30
0.0
  0
VERTEX
  5
846
  8
LAYER_1
 62
   250
 10
-43.7255
 20
100.4387
 30
0.0
  0
SEQEND
  5
847
  8
LAYER_1
 62
   250
  0
POLYLINE
  5
60
  8
LAYER_1
 62
   250
 66
     1
 10
0.0
 20
0.0
 30
0.0
 70
     1
  0
VERTEX
  5
848
  8
LAYER_1
 62
   250
 10
-43.4387
 20
100.4387
 30
0.0
  0
VERTEX
  5
849
  8
LAYER_1
 62
   250
 10
-43.4301
 20
100.2903
 30
0.0
  0
VERTEX
  5
84A
  8
LAYER_1
 62
   250
 10
-43.4042
 20
100.162
 30
0.0
  0
VERTEX
  5
84B
  8
LAYER_1
 62
   250
 10
-43.361
 20
100.0536
 30
0.0
  0
VERTEX
  5
84C
  8
LAYER_1
 62
   250
 10
-43.3006
 20
99.9651
 30
0.0
  0
VERTEX
  5
84D
  8
LAYER_1
 62
   250
 10
-43.2271
 20
99.896
 30
0.0
  0
VERTEX
  5
84E
  8
LAYER_1
 62
   250
 10
-43.1447
 20
99.8468
 30
0.0
  0
VERTEX
  5
84F
  8
LAYER_1
 62
   250
 10
-43.0534
 20
99.8172
 30
0.0
  0
VERTEX
  5
850
  8
LAYER_1
 62
   250
 10
-42.9534
 20
99.8074
 30
0.0
  0
VERTEX
  5
851
  8
LAYER_1
 62
   250
 10
-42.8538
 20
99.8173
 30
0.0
  0
VERTEX
  5
852
  8
LAYER_1
 62
   250
 10
-42.7629
 20
99.847
 30
0.0
  0
VERTEX
  5
853
  8
LAYER_1
 62
   250
 10
-42.6808
 20
99.8965
 30
0.0
  0
VERTEX
  5
854
  8
LAYER_1
 62
   250
 10
-42.6074
 20
99.9656
 30
0.0
  0
VERTEX
  5
855
  8
LAYER_1
 62
   250
 10
-42.5473
 20
100.055
 30
0.0
  0
VERTEX
  5
856
  8
LAYER_1
 62
   250
 10
-42.5043
 20
100.1652
 30
0.0
  0
VERTEX
  5
857
  8
LAYER_1
 62
   250
 10
-42.4784
 20
100.2961
 30
0.0
  0
VERTEX
  5
858
  8
LAYER_1
 62
   250
 10
-42.4698
 20
100.4477
 30
0.0
  0
VERTEX
  5
859
  8
LAYER_1
 62
   250
 10
-42.4784
 20
100.5912
 30
0.0
  0
VERTEX
  5
85A
  8
LAYER_1
 62
   250
 10
-42.5044
 20
100.7163
 30
0.0
  0
VERTEX
  5
85B
  8
LAYER_1
 62
   250
 10
-42.5477
 20
100.8228
 30
0.0
  0
VERTEX
  5
85C
  8
LAYER_1
 62
   250
 10
-42.6084
 20
100.9107
 30
0.0
  0
VERTEX
  5
85D
  8
LAYER_1
 62
   250
 10
-42.682
 20
100.9795
 30
0.0
  0
VERTEX
  5
85E
  8
LAYER_1
 62
   250
 10
-42.7641
 20
101.0286
 30
0.0
  0
VERTEX
  5
85F
  8
LAYER_1
 62
   250
 10
-42.8545
 20
101.0581
 30
0.0
  0
VERTEX
  5
860
  8
LAYER_1
 62
   250
 10
-42.9534
 20
101.0679
 30
0.0
  0
VERTEX
  5
861
  8
LAYER_1
 62
   250
 10
-43.0534
 20
101.0581
 30
0.0
  0
VERTEX
  5
862
  8
LAYER_1
 62
   250
 10
-43.1447
 20
101.0287
 30
0.0
  0
VERTEX
  5
863
  8
LAYER_1
 62
   250
 10
-43.2271
 20
100.9797
 30
0.0
  0
VERTEX
  5
864
  8
LAYER_1
 62
   250
 10
-43.3006
 20
100.9112
 30
0.0
  0
VERTEX
  5
865
  8
LAYER_1
 62
   250
 10
-43.361
 20
100.823
 30
0.0
  0
VERTEX
  5
866
  8
LAYER_1
 62
   250
 10
-43.4042
 20
100.7149
 30
0.0
  0
VERTEX
  5
867
  8
LAYER_1
 62
   250
 10
-43.4301
 20
100.5867
 30
0.0
  0
VERTEX
  5
868
  8
LAYER_1
 62
   250
 10
-43.4387
 20
100.4387
 30
0.0
  0
SEQEND
  5
869
  8
LAYER_1
 62
   250
  0
POLYLINE
  5
61
  8
LAYER_1
 62
   250
 66
     1
 10
0.0
 20
0.0
 30
0.0
 70
     1
  0
VERTEX
  5
86A
  8
LAYER_1
 62
   250
 10
-41.5199
 20
99.6153
 30
0.0
  0
VERTEX
  5
86B
  8
LAYER_1
 62
   250
 10
-42.0237
 20
101.2615
 30
0.0
  0
VERTEX
  5
86C
  8
LAYER_1
 62
   250
 10
-41.7353
 20
101.2615
 30
0.0
  0
VERTEX
  5
86D
  8
LAYER_1
 62
   250
 10
-41.4733
 20
100.3112
 30
0.0
  0
VERTEX
  5
86E
  8
LAYER_1
 62
   250
 10
-41.376
 20
99.9577
 30
0.0
  0
VERTEX
  5
86F
  8
LAYER_1
 62
   250
 10
-41.2908
 20
100.2974
 30
0.0
  0
VERTEX
  5
870
  8
LAYER_1
 62
   250
 10
-41.0288
 20
101.2615
 30
0.0
  0
VERTEX
  5
871
  8
LAYER_1
 62
   250
 10
-40.742
 20
101.2615
 30
0.0
  0
VERTEX
  5
872
  8
LAYER_1
 62
   250
 10
-40.4954
 20
100.3069
 30
0.0
  0
VERTEX
  5
873
  8
LAYER_1
 62
   250
 10
-40.4129
 20
99.9921
 30
0.0
  0
VERTEX
  5
874
  8
LAYER_1
 62
   250
 10
-40.3187
 20
100.3101
 30
0.0
  0
VERTEX
  5
875
  8
LAYER_1
 62
   250
 10
-40.0367
 20
101.2615
 30
0.0
  0
VERTEX
  5
876
  8
LAYER_1
 62
   250
 10
-39.7652
 20
101.2615
 30
0.0
  0
VERTEX
  5
877
  8
LAYER_1
 62
   250
 10
-40.2801
 20
99.6153
 30
0.0
  0
VERTEX
  5
878
  8
LAYER_1
 62
   250
 10
-40.5695
 20
99.6153
 30
0.0
  0
VERTEX
  5
879
  8
LAYER_1
 62
   250
 10
-40.8315
 20
100.6011
 30
0.0
  0
VERTEX
  5
87A
  8
LAYER_1
 62
   250
 10
-40.8955
 20
100.8821
 30
0.0
  0
VERTEX
  5
87B
  8
LAYER_1
 62
   250
 10
-41.2283
 20
99.6153
 30
0.0
  0
VERTEX
  5
87C
  8
LAYER_1
 62
   250
 10
-41.5199
 20
99.6153
 30
0.0
  0
SEQEND
  5
87D
  8
LAYER_1
 62
   250
  0
POLYLINE
  5
62
  8
LAYER_1
 62
   250
 66
     1
 10
0.0
 20
0.0
 30
0.0
 70
     1
  0
VERTEX
  5
87E
  8
LAYER_1
 62
   250
 10
-38.4247
 20
99.8185
 30
0.0
  0
VERTEX
  5
87F
  8
LAYER_1
 62
   250
 10
-38.7232
 20
99.6322
 30
0.0
  0
VERTEX
  5
880
  8
LAYER_1
 62
   250
 10
-39.0312
 20
99.5783
 30
0.0
  0
VERTEX
  5
881
  8
LAYER_1
 62
   250
 10
-39.159
 20
99.5865
 30
0.0
  0
VERTEX
  5
882
  8
LAYER_1
 62
   250
 10
-39.271
 20
99.6113
 30
0.0
  0
VERTEX
  5
883
  8
LAYER_1
 62
   250
 10
-39.3674
 20
99.6526
 30
0.0
  0
VERTEX
  5
884
  8
LAYER_1
 62
   250
 10
-39.4481
 20
99.7106
 30
0.0
  0
VERTEX
  5
885
  8
LAYER_1
 62
   250
 10
-39.5117
 20
99.7815
 30
0.0
  0
VERTEX
  5
886
  8
LAYER_1
 62
   250
 10
-39.5572
 20
99.8616
 30
0.0
  0
VERTEX
  5
887
  8
LAYER_1
 62
   250
 10
-39.5846
 20
99.9509
 30
0.0
  0
VERTEX
  5
888
  8
LAYER_1
 62
   250
 10
-39.5937
 20
100.0492
 30
0.0
  0
VERTEX
  5
889
  8
LAYER_1
 62
   250
 10
-39.5386
 20
100.2704
 30
0.0
  0
VERTEX
  5
88A
  8
LAYER_1
 62
   250
 10
-39.3947
 20
100.4307
 30
0.0
  0
VERTEX
  5
88B
  8
LAYER_1
 62
   250
 10
-39.1936
 20
100.5223
 30
0.0
  0
VERTEX
  5
88C
  8
LAYER_1
 62
   250
 10
-38.946
 20
100.5641
 30
0.0
  0
VERTEX
  5
88D
  8
LAYER_1
 62
   250
 10
-38.448
 20
100.6604
 30
0.0
  0
VERTEX
  5
88E
  8
LAYER_1
 62
   250
 10
-38.4464
 20
100.7329
 30
0.0
  0
VERTEX
  5
88F
  8
LAYER_1
 62
   250
 10
-38.4514
 20
100.812
 30
0.0
  0
VERTEX
  5
890
  8
LAYER_1
 62
   250
 10
-38.4663
 20
100.8784
 30
0.0
  0
VERTEX
  5
891
  8
LAYER_1
 62
   250
 10
-38.4911
 20
100.9322
 30
0.0
  0
VERTEX
  5
892
  8
LAYER_1
 62
   250
 10
-38.5258
 20
100.9731
 30
0.0
  0
VERTEX
  5
893
  8
LAYER_1
 62
   250
 10
-38.5856
 20
101.0147
 30
0.0
  0
VERTEX
  5
894
  8
LAYER_1
 62
   250
 10
-38.6586
 20
101.0443
 30
0.0
  0
VERTEX
  5
895
  8
LAYER_1
 62
   250
 10
-38.7445
 20
101.062
 30
0.0
  0
VERTEX
  5
896
  8
LAYER_1
 62
   250
 10
-38.8433
 20
101.0679
 30
0.0
  0
VERTEX
  5
897
  8
LAYER_1
 62
   250
 10
-38.9353
 20
101.0636
 30
0.0
  0
VERTEX
  5
898
  8
LAYER_1
 62
   250
 10
-39.0144
 20
101.0508
 30
0.0
  0
VERTEX
  5
899
  8
LAYER_1
 62
   250
 10
-39.0808
 20
101.0293
 30
0.0
  0
VERTEX
  5
89A
  8
LAYER_1
 62
   250
 10
-39.1344
 20
100.9991
 30
0.0
  0
VERTEX
  5
89B
  8
LAYER_1
 62
   250
 10
-39.1781
 20
100.9579
 30
0.0
  0
VERTEX
  5
89C
  8
LAYER_1
 62
   250
 10
-39.2158
 20
100.9034
 30
0.0
  0
VERTEX
  5
89D
  8
LAYER_1
 62
   250
 10
-39.2474
 20
100.8356
 30
0.0
  0
VERTEX
  5
89E
  8
LAYER_1
 62
   250
 10
-39.273
 20
100.7546
 30
0.0
  0
VERTEX
  5
89F
  8
LAYER_1
 62
   250
 10
-39.5455
 20
100.7922
 30
0.0
  0
VERTEX
  5
8A0
  8
LAYER_1
 62
   250
 10
-39.4963
 20
100.9503
 30
0.0
  0
VERTEX
  5
8A1
  8
LAYER_1
 62
   250
 10
-39.4233
 20
101.0747
 30
0.0
  0
VERTEX
  5
8A2
  8
LAYER_1
 62
   250
 10
-39.376
 20
101.1256
 30
0.0
  0
VERTEX
  5
8A3
  8
LAYER_1
 62
   250
 10
-39.3191
 20
101.1703
 30
0.0
  0
VERTEX
  5
8A4
  8
LAYER_1
 62
   250
 10
-39.2526
 20
101.2088
 30
0.0
  0
VERTEX
  5
8A5
  8
LAYER_1
 62
   250
 10
-39.1767
 20
101.2409
 30
0.0
  0
VERTEX
  5
8A6
  8
LAYER_1
 62
   250
 10
-39.0028
 20
101.2845
 30
0.0
  0
VERTEX
  5
8A7
  8
LAYER_1
 62
   250
 10
-38.8031
 20
101.2991
 30
0.0
  0
VERTEX
  5
8A8
  8
LAYER_1
 62
   250
 10
-38.6121
 20
101.2866
 30
0.0
  0
VERTEX
  5
8A9
  8
LAYER_1
 62
   250
 10
-38.4607
 20
101.2494
 30
0.0
  0
VERTEX
  5
8AA
  8
LAYER_1
 62
   250
 10
-38.2665
 20
101.1245
 30
0.0
  0
VERTEX
  5
8AB
  8
LAYER_1
 62
   250
 10
-38.1797
 20
100.9345
 30
0.0
  0
VERTEX
  5
8AC
  8
LAYER_1
 62
   250
 10
-38.166
 20
100.6773
 30
0.0
  0
VERTEX
  5
8AD
  8
LAYER_1
 62
   250
 10
-38.166
 20
100.3053
 30
0.0
  0
VERTEX
  5
8AE
  8
LAYER_1
 62
   250
 10
-38.148
 20
99.8132
 30
0.0
  0
VERTEX
  5
8AF
  8
LAYER_1
 62
   250
 10
-38.0776
 20
99.6153
 30
0.0
  0
VERTEX
  5
8B0
  8
LAYER_1
 62
   250
 10
-38.3692
 20
99.6153
 30
0.0
  0
VERTEX
  5
8B1
  8
LAYER_1
 62
   250
 10
-38.4247
 20
99.8185
 30
0.0
  0
SEQEND
  5
8B2
  8
LAYER_1
 62
   250
  0
POLYLINE
  5
63
  8
LAYER_1
 62
   250
 66
     1
 10
0.0
 20
0.0
 30
0.0
 70
     1
  0
VERTEX
  5
8B3
  8
LAYER_1
 62
   250
 10
-38.448
 20
100.4419
 30
0.0
  0
VERTEX
  5
8B4
  8
LAYER_1
 62
   250
 10
-38.9036
 20
100.336
 30
0.0
  0
VERTEX
  5
8B5
  8
LAYER_1
 62
   250
 10
-39.1471
 20
100.2805
 30
0.0
  0
VERTEX
  5
8B6
  8
LAYER_1
 62
   250
 10
-39.2571
 20
100.1894
 30
0.0
  0
VERTEX
  5
8B7
  8
LAYER_1
 62
   250
 10
-39.2963
 20
100.0572
 30
0.0
  0
VERTEX
  5
8B8
  8
LAYER_1
 62
   250
 10
-39.291
 20
100.0036
 30
0.0
  0
VERTEX
  5
8B9
  8
LAYER_1
 62
   250
 10
-39.275
 20
99.9547
 30
0.0
  0
VERTEX
  5
8BA
  8
LAYER_1
 62
   250
 10
-39.2485
 20
99.9105
 30
0.0
  0
VERTEX
  5
8BB
  8
LAYER_1
 62
   250
 10
-39.2116
 20
99.8709
 30
0.0
  0
VERTEX
  5
8BC
  8
LAYER_1
 62
   250
 10
-39.1646
 20
99.8386
 30
0.0
  0
VERTEX
  5
8BD
  8
LAYER_1
 62
   250
 10
-39.1077
 20
99.8154
 30
0.0
  0
VERTEX
  5
8BE
  8
LAYER_1
 62
   250
 10
-39.041
 20
99.8015
 30
0.0
  0
VERTEX
  5
8BF
  8
LAYER_1
 62
   250
 10
-38.9645
 20
99.7968
 30
0.0
  0
VERTEX
  5
8C0
  8
LAYER_1
 62
   250
 10
-38.8122
 20
99.8143
 30
0.0
  0
VERTEX
  5
8C1
  8
LAYER_1
 62
   250
 10
-38.6777
 20
99.8672
 30
0.0
  0
VERTEX
  5
8C2
  8
LAYER_1
 62
   250
 10
-38.6191
 20
99.9058
 30
0.0
  0
VERTEX
  5
8C3
  8
LAYER_1
 62
   250
 10
-38.5687
 20
99.9509
 30
0.0
  0
VERTEX
  5
8C4
  8
LAYER_1
 62
   250
 10
-38.5266
 20
100.0024
 30
0.0
  0
VERTEX
  5
8C5
  8
LAYER_1
 62
   250
 10
-38.493
 20
100.0603
 30
0.0
  0
VERTEX
  5
8C6
  8
LAYER_1
 62
   250
 10
-38.448
 20
100.3392
 30
0.0
  0
VERTEX
  5
8C7
  8
LAYER_1
 62
   250
 10
-38.448
 20
100.4419
 30
0.0
  0
SEQEND
  5
8C8
  8
LAYER_1
 62
   250
  0
POLYLINE
  5
64
  8
LAYER_1
 62
   250
 66
     1
 10
0.0
 20
0.0
 30
0.0
 70
     1
  0
VERTEX
  5
8C9
  8
LAYER_1
 62
   250
 10
-37.4442
 20
99.6153
 30
0.0
  0
VERTEX
  5
8CA
  8
LAYER_1
 62
   250
 10
-37.7029
 20
99.6153
 30
0.0
  0
VERTEX
  5
8CB
  8
LAYER_1
 62
   250
 10
-37.7029
 20
101.8881
 30
0.0
  0
VERTEX
  5
8CC
  8
LAYER_1
 62
   250
 10
-37.4241
 20
101.8881
 30
0.0
  0
VERTEX
  5
8CD
  8
LAYER_1
 62
   250
 10
-37.4241
 20
101.0774
 30
0.0
  0
VERTEX
  5
8CE
  8
LAYER_1
 62
   250
 10
-37.3295
 20
101.1743
 30
0.0
  0
VERTEX
  5
8CF
  8
LAYER_1
 62
   250
 10
-37.2229
 20
101.2436
 30
0.0
  0
VERTEX
  5
8D0
  8
LAYER_1
 62
   250
 10
-37.1041
 20
101.2852
 30
0.0
  0
VERTEX
  5
8D1
  8
LAYER_1
 62
   250
 10
-36.9732
 20
101.2991
 30
0.0
  0
VERTEX
  5
8D2
  8
LAYER_1
 62
   250
 10
-36.8251
 20
101.2837
 30
0.0
  0
VERTEX
  5
8D3
  8
LAYER_1
 62
   250
 10
-36.6853
 20
101.2377
 30
0.0
  0
VERTEX
  5
8D4
  8
LAYER_1
 62
   250
 10
-36.5618
 20
101.164
 30
0.0
  0
VERTEX
  5
8D5
  8
LAYER_1
 62
   250
 10
-36.462
 20
101.0657
 30
0.0
  0
VERTEX
  5
8D6
  8
LAYER_1
 62
   250
 10
-36.325
 20
100.798
 30
0.0
  0
VERTEX
  5
8D7
  8
LAYER_1
 62
   250
 10
-36.2752
 20
100.4636
 30
0.0
  0
VERTEX
  5
8D8
  8
LAYER_1
 62
   250
 10
-36.2883
 20
100.2638
 30
0.0
  0
VERTEX
  5
8D9
  8
LAYER_1
 62
   250
 10
-36.3276
 20
100.0881
 30
0.0
  0
VERTEX
  5
8DA
  8
LAYER_1
 62
   250
 10
-36.3931
 20
99.9365
 30
0.0
  0
VERTEX
  5
8DB
  8
LAYER_1
 62
   250
 10
-36.4848
 20
99.809
 30
0.0
  0
VERTEX
  5
8DC
  8
LAYER_1
 62
   250
 10
-36.5945
 20
99.708
 30
0.0
  0
VERTEX
  5
8DD
  8
LAYER_1
 62
   250
 10
-36.7149
 20
99.6359
 30
0.0
  0
VERTEX
  5
8DE
  8
LAYER_1
 62
   250
 10
-36.8457
 20
99.5927
 30
0.0
  0
VERTEX
  5
8DF
  8
LAYER_1
 62
   250
 10
-36.987
 20
99.5783
 30
0.0
  0
VERTEX
  5
8E0
  8
LAYER_1
 62
   250
 10
-37.1248
 20
99.5935
 30
0.0
  0
VERTEX
  5
8E1
  8
LAYER_1
 62
   250
 10
-37.247
 20
99.6391
 30
0.0
  0
VERTEX
  5
8E2
  8
LAYER_1
 62
   250
 10
-37.3534
 20
99.7151
 30
0.0
  0
VERTEX
  5
8E3
  8
LAYER_1
 62
   250
 10
-37.4442
 20
99.8217
 30
0.0
  0
VERTEX
  5
8E4
  8
LAYER_1
 62
   250
 10
-37.4442
 20
99.6153
 30
0.0
  0
SEQEND
  5
8E5
  8
LAYER_1
 62
   250
  0
POLYLINE
  5
65
  8
LAYER_1
 62
   250
 66
     1
 10
0.0
 20
0.0
 30
0.0
 70
     1
  0
VERTEX
  5
8E6
  8
LAYER_1
 62
   250
 10
-37.4473
 20
100.4509
 30
0.0
  0
VERTEX
  5
8E7
  8
LAYER_1
 62
   250
 10
-37.4423
 20
100.3132
 30
0.0
  0
VERTEX
  5
8E8
  8
LAYER_1
 62
   250
 10
-37.4272
 20
100.196
 30
0.0
  0
VERTEX
  5
8E9
  8
LAYER_1
 62
   250
 10
-37.402
 20
100.0994
 30
0.0
  0
VERTEX
  5
8EA
  8
LAYER_1
 62
   250
 10
-37.3669
 20
100.0233
 30
0.0
  0
VERTEX
  5
8EB
  8
LAYER_1
 62
   250
 10
-37.2952
 20
99.9289
 30
0.0
  0
VERTEX
  5
8EC
  8
LAYER_1
 62
   250
 10
-37.2118
 20
99.8614
 30
0.0
  0
VERTEX
  5
8ED
  8
LAYER_1
 62
   250
 10
-37.1168
 20
99.8209
 30
0.0
  0
VERTEX
  5
8EE
  8
LAYER_1
 62
   250
 10
-37.0103
 20
99.8074
 30
0.0
  0
VERTEX
  5
8EF
  8
LAYER_1
 62
   250
 10
-36.9218
 20
99.8173
 30
0.0
  0
VERTEX
  5
8F0
  8
LAYER_1
 62
   250
 10
-36.8395
 20
99.8472
 30
0.0
  0
VERTEX
  5
8F1
  8
LAYER_1
 62
   250
 10
-36.7636
 20
99.8969
 30
0.0
  0
VERTEX
  5
8F2
  8
LAYER_1
 62
   250
 10
-36.6938
 20
99.9667
 30
0.0
  0
VERTEX
  5
8F3
  8
LAYER_1
 62
   250
 10
-36.6355
 20
100.0558
 30
0.0
  0
VERTEX
  5
8F4
  8
LAYER_1
 62
   250
 10
-36.5938
 20
100.1644
 30
0.0
  0
VERTEX
  5
8F5
  8
LAYER_1
 62
   250
 10
-36.5688
 20
100.2925
 30
0.0
  0
VERTEX
  5
8F6
  8
LAYER_1
 62
   250
 10
-36.5605
 20
100.4403
 30
0.0
  0
VERTEX
  5
8F7
  8
LAYER_1
 62
   250
 10
-36.5685
 20
100.5909
 30
0.0
  0
VERTEX
  5
8F8
  8
LAYER_1
 62
   250
 10
-36.5926
 20
100.7204
 30
0.0
  0
VERTEX
  5
8F9
  8
LAYER_1
 62
   250
 10
-36.6326
 20
100.8288
 30
0.0
  0
VERTEX
  5
8FA
  8
LAYER_1
 62
   250
 10
-36.6885
 20
100.916
 30
0.0
  0
VERTEX
  5
8FB
  8
LAYER_1
 62
   250
 10
-36.7558
 20
100.9831
 30
0.0
  0
VERTEX
  5
8FC
  8
LAYER_1
 62
   250
 10
-36.8297
 20
101.031
 30
0.0
  0
VERTEX
  5
8FD
  8
LAYER_1
 62
   250
 10
-36.9104
 20
101.0599
 30
0.0
  0
VERTEX
  5
8FE
  8
LAYER_1
 62
   250
 10
-36.9976
 20
101.0695
 30
0.0
  0
VERTEX
  5
8FF
  8
LAYER_1
 62
   250
 10
-37.0861
 20
101.0596
 30
0.0
  0
VERTEX
  5
900
  8
LAYER_1
 62
   250
 10
-37.1683
 20
101.0298
 30
0.0
  0
VERTEX
  5
901
  8
LAYER_1
 62
   250
 10
-37.2442
 20
100.9801
 30
0.0
  0
VERTEX
  5
902
  8
LAYER_1
 62
   250
 10
-37.314
 20
100.9107
 30
0.0
  0
VERTEX
  5
903
  8
LAYER_1
 62
   250
 10
-37.3723
 20
100.8224
 30
0.0
  0
VERTEX
  5
904
  8
LAYER_1
 62
   250
 10
-37.414
 20
100.7163
 30
0.0
  0
VERTEX
  5
905
  8
LAYER_1
 62
   250
 10
-37.439
 20
100.5925
 30
0.0
  0
VERTEX
  5
906
  8
LAYER_1
 62
   250
 10
-37.4473
 20
100.4509
 30
0.0
  0
SEQEND
  5
907
  8
LAYER_1
 62
   250
  0
POLYLINE
  5
66
  8
LAYER_1
 62
   250
 66
     1
 10
0.0
 20
0.0
 30
0.0
 70
     1
  0
VERTEX
  5
908
  8
LAYER_1
 62
   250
 10
-36.008
 20
100.4387
 30
0.0
  0
VERTEX
  5
909
  8
LAYER_1
 62
   250
 10
-35.9921
 20
100.6525
 30
0.0
  0
VERTEX
  5
90A
  8
LAYER_1
 62
   250
 10
-35.9444
 20
100.8367
 30
0.0
  0
VERTEX
  5
90B
  8
LAYER_1
 62
   250
 10
-35.9086
 20
100.9176
 30
0.0
  0
VERTEX
  5
90C
  8
LAYER_1
 62
   250
 10
-35.8649
 20
100.9912
 30
0.0
  0
VERTEX
  5
90D
  8
LAYER_1
 62
   250
 10
-35.8132
 20
101.0573
 30
0.0
  0
VERTEX
  5
90E
  8
LAYER_1
 62
   250
 10
-35.7535
 20
101.116
 30
0.0
  0
VERTEX
  5
90F
  8
LAYER_1
 62
   250
 10
-35.6417
 20
101.196
 30
0.0
  0
VERTEX
  5
910
  8
LAYER_1
 62
   250
 10
-35.5181
 20
101.2532
 30
0.0
  0
VERTEX
  5
911
  8
LAYER_1
 62
   250
 10
-35.3829
 20
101.2876
 30
0.0
  0
VERTEX
  5
912
  8
LAYER_1
 62
   250
 10
-35.2359
 20
101.2991
 30
0.0
  0
VERTEX
  5
913
  8
LAYER_1
 62
   250
 10
-35.0738
 20
101.2852
 30
0.0
  0
VERTEX
  5
914
  8
LAYER_1
 62
   250
 10
-34.9272
 20
101.2435
 30
0.0
  0
VERTEX
  5
915
  8
LAYER_1
 62
   250
 10
-34.7962
 20
101.1738
 30
0.0
  0
VERTEX
  5
916
  8
LAYER_1
 62
   250
 10
-34.6808
 20
101.0763
 30
0.0
  0
VERTEX
  5
917
  8
LAYER_1
 62
   250
 10
-34.5865
 20
100.9546
 30
0.0
  0
VERTEX
  5
918
  8
LAYER_1
 62
   250
 10
-34.5192
 20
100.8116
 30
0.0
  0
VERTEX
  5
919
  8
LAYER_1
 62
   250
 10
-34.4789
 20
100.6474
 30
0.0
  0
VERTEX
  5
91A
  8
LAYER_1
 62
   250
 10
-34.4655
 20
100.462
 30
0.0
  0
VERTEX
  5
91B
  8
LAYER_1
 62
   250
 10
-34.4714
 20
100.3114
 30
0.0
  0
VERTEX
  5
91C
  8
LAYER_1
 62
   250
 10
-34.4893
 20
100.1778
 30
0.0
  0
VERTEX
  5
91D
  8
LAYER_1
 62
   250
 10
-34.519
 20
100.0613
 30
0.0
  0
VERTEX
  5
91E
  8
LAYER_1
 62
   250
 10
-34.5607
 20
99.9619
 30
0.0
  0
VERTEX
  5
91F
  8
LAYER_1
 62
   250
 10
-34.6138
 20
99.8758
 30
0.0
  0
VERTEX
  5
920
  8
LAYER_1
 62
   250
 10
-34.6777
 20
99.7999
 30
0.0
  0
VERTEX
  5
921
  8
LAYER_1
 62
   250
 10
-34.7525
 20
99.7343
 30
0.0
  0
VERTEX
  5
922
  8
LAYER_1
 62
   250
 10
-34.838
 20
99.6788
 30
0.0
  0
VERTEX
  5
923
  8
LAYER_1
 62
   250
 10
-34.9313
 20
99.6347
 30
0.0
  0
VERTEX
  5
924
  8
LAYER_1
 62
   250
 10
-35.0286
 20
99.6034
 30
0.0
  0
VERTEX
  5
925
  8
LAYER_1
 62
   250
 10
-35.1301
 20
99.5846
 30
0.0
  0
VERTEX
  5
926
  8
LAYER_1
 62
   250
 10
-35.2359
 20
99.5783
 30
0.0
  0
VERTEX
  5
927
  8
LAYER_1
 62
   250
 10
-35.4003
 20
99.5921
 30
0.0
  0
VERTEX
  5
928
  8
LAYER_1
 62
   250
 10
-35.5483
 20
99.6336
 30
0.0
  0
VERTEX
  5
929
  8
LAYER_1
 62
   250
 10
-35.6797
 20
99.7028
 30
0.0
  0
VERTEX
  5
92A
  8
LAYER_1
 62
   250
 10
-35.7947
 20
99.8
 30
0.0
  0
VERTEX
  5
92B
  8
LAYER_1
 62
   250
 10
-35.8881
 20
99.9229
 30
0.0
  0
VERTEX
  5
92C
  8
LAYER_1
 62
   250
 10
-35.9548
 20
100.0703
 30
0.0
  0
VERTEX
  5
92D
  8
LAYER_1
 62
   250
 10
-35.9947
 20
100.2422
 30
0.0
  0
VERTEX
  5
92E
  8
LAYER_1
 62
   250
 10
-36.008
 20
100.4387
 30
0.0
  0
SEQEND
  5
92F
  8
LAYER_1
 62
   250
  0
POLYLINE
  5
67
  8
LAYER_1
 62
   250
 66
     1
 10
0.0
 20
0.0
 30
0.0
 70
     1
  0
VERTEX
  5
930
  8
LAYER_1
 62
   250
 10
-35.7212
 20
100.4387
 30
0.0
  0
VERTEX
  5
931
  8
LAYER_1
 62
   250
 10
-35.7126
 20
100.2903
 30
0.0
  0
VERTEX
  5
932
  8
LAYER_1
 62
   250
 10
-35.6867
 20
100.162
 30
0.0
  0
VERTEX
  5
933
  8
LAYER_1
 62
   250
 10
-35.6435
 20
100.0536
 30
0.0
  0
VERTEX
  5
934
  8
LAYER_1
 62
   250
 10
-35.5831
 20
99.9651
 30
0.0
  0
VERTEX
  5
935
  8
LAYER_1
 62
   250
 10
-35.5096
 20
99.896
 30
0.0
  0
VERTEX
  5
936
  8
LAYER_1
 62
   250
 10
-35.4272
 20
99.8468
 30
0.0
  0
VERTEX
  5
937
  8
LAYER_1
 62
   250
 10
-35.3359
 20
99.8172
 30
0.0
  0
VERTEX
  5
938
  8
LAYER_1
 62
   250
 10
-35.2359
 20
99.8074
 30
0.0
  0
VERTEX
  5
939
  8
LAYER_1
 62
   250
 10
-35.1363
 20
99.8173
 30
0.0
  0
VERTEX
  5
93A
  8
LAYER_1
 62
   250
 10
-35.0454
 20
99.847
 30
0.0
  0
VERTEX
  5
93B
  8
LAYER_1
 62
   250
 10
-34.9633
 20
99.8965
 30
0.0
  0
VERTEX
  5
93C
  8
LAYER_1
 62
   250
 10
-34.8899
 20
99.9656
 30
0.0
  0
VERTEX
  5
93D
  8
LAYER_1
 62
   250
 10
-34.8298
 20
100.055
 30
0.0
  0
VERTEX
  5
93E
  8
LAYER_1
 62
   250
 10
-34.7868
 20
100.1652
 30
0.0
  0
VERTEX
  5
93F
  8
LAYER_1
 62
   250
 10
-34.7609
 20
100.2961
 30
0.0
  0
VERTEX
  5
940
  8
LAYER_1
 62
   250
 10
-34.7523
 20
100.4477
 30
0.0
  0
VERTEX
  5
941
  8
LAYER_1
 62
   250
 10
-34.7609
 20
100.5912
 30
0.0
  0
VERTEX
  5
942
  8
LAYER_1
 62
   250
 10
-34.7869
 20
100.7163
 30
0.0
  0
VERTEX
  5
943
  8
LAYER_1
 62
   250
 10
-34.8302
 20
100.8228
 30
0.0
  0
VERTEX
  5
944
  8
LAYER_1
 62
   250
 10
-34.8909
 20
100.9107
 30
0.0
  0
VERTEX
  5
945
  8
LAYER_1
 62
   250
 10
-34.9645
 20
100.9795
 30
0.0
  0
VERTEX
  5
946
  8
LAYER_1
 62
   250
 10
-35.0466
 20
101.0286
 30
0.0
  0
VERTEX
  5
947
  8
LAYER_1
 62
   250
 10
-35.137
 20
101.0581
 30
0.0
  0
VERTEX
  5
948
  8
LAYER_1
 62
   250
 10
-35.2359
 20
101.0679
 30
0.0
  0
VERTEX
  5
949
  8
LAYER_1
 62
   250
 10
-35.3359
 20
101.0581
 30
0.0
  0
VERTEX
  5
94A
  8
LAYER_1
 62
   250
 10
-35.4272
 20
101.0287
 30
0.0
  0
VERTEX
  5
94B
  8
LAYER_1
 62
   250
 10
-35.5096
 20
100.9797
 30
0.0
  0
VERTEX
  5
94C
  8
LAYER_1
 62
   250
 10
-35.5831
 20
100.9112
 30
0.0
  0
VERTEX
  5
94D
  8
LAYER_1
 62
   250
 10
-35.6435
 20
100.823
 30
0.0
  0
VERTEX
  5
94E
  8
LAYER_1
 62
   250
 10
-35.6867
 20
100.7149
 30
0.0
  0
VERTEX
  5
94F
  8
LAYER_1
 62
   250
 10
-35.7126
 20
100.5867
 30
0.0
  0
VERTEX
  5
950
  8
LAYER_1
 62
   250
 10
-35.7212
 20
100.4387
 30
0.0
  0
SEQEND
  5
951
  8
LAYER_1
 62
   250
  0
POLYLINE
  5
68
  8
LAYER_1
 62
   250
 66
     1
 10
0.0
 20
0.0
 30
0.0
 70
     1
  0
VERTEX
  5
952
  8
LAYER_1
 62
   250
 10
-33.0272
 20
99.6153
 30
0.0
  0
VERTEX
  5
953
  8
LAYER_1
 62
   250
 10
-33.0272
 20
99.8571
 30
0.0
  0
VERTEX
  5
954
  8
LAYER_1
 62
   250
 10
-33.1322
 20
99.735
 30
0.0
  0
VERTEX
  5
955
  8
LAYER_1
 62
   250
 10
-33.2543
 20
99.6479
 30
0.0
  0
VERTEX
  5
956
  8
LAYER_1
 62
   250
 10
-33.3935
 20
99.5957
 30
0.0
  0
VERTEX
  5
957
  8
LAYER_1
 62
   250
 10
-33.55
 20
99.5783
 30
0.0
  0
VERTEX
  5
958
  8
LAYER_1
 62
   250
 10
-33.822
 20
99.6338
 30
0.0
  0
VERTEX
  5
959
  8
LAYER_1
 62
   250
 10
-33.9319
 20
99.6968
 30
0.0
  0
VERTEX
  5
95A
  8
LAYER_1
 62
   250
 10
-34.0093
 20
99.7741
 30
0.0
  0
VERTEX
  5
95B
  8
LAYER_1
 62
   250
 10
-34.0956
 20
99.981
 30
0.0
  0
VERTEX
  5
95C
  8
LAYER_1
 62
   250
 10
-34.1125
 20
100.2418
 30
0.0
  0
VERTEX
  5
95D
  8
LAYER_1
 62
   250
 10
-34.1125
 20
101.2615
 30
0.0
  0
VERTEX
  5
95E
  8
LAYER_1
 62
   250
 10
-33.8336
 20
101.2615
 30
0.0
  0
VERTEX
  5
95F
  8
LAYER_1
 62
   250
 10
-33.8336
 20
100.3487
 30
0.0
  0
VERTEX
  5
960
  8
LAYER_1
 62
   250
 10
-33.8167
 20
100.054
 30
0.0
  0
VERTEX
  5
961
  8
LAYER_1
 62
   250
 10
-33.7754
 20
99.9558
 30
0.0
  0
VERTEX
  5
962
  8
LAYER_1
 62
   250
 10
-33.705
 20
99.8809
 30
0.0
  0
VERTEX
  5
963
  8
LAYER_1
 62
   250
 10
-33.6094
 20
99.834
 30
0.0
  0
VERTEX
  5
964
  8
LAYER_1
 62
   250
 10
-33.4939
 20
99.8185
 30
0.0
  0
VERTEX
  5
965
  8
LAYER_1
 62
   250
 10
-33.3724
 20
99.8345
 30
0.0
  0
VERTEX
  5
966
  8
LAYER_1
 62
   250
 10
-33.2584
 20
99.8825
 30
0.0
  0
VERTEX
  5
967
  8
LAYER_1
 62
   250
 10
-33.1644
 20
99.9586
 30
0.0
  0
VERTEX
  5
968
  8
LAYER_1
 62
   250
 10
-33.1028
 20
100.0577
 30
0.0
  0
VERTEX
  5
969
  8
LAYER_1
 62
   250
 10
-33.0568
 20
100.3794
 30
0.0
  0
VERTEX
  5
96A
  8
LAYER_1
 62
   250
 10
-33.0568
 20
101.2615
 30
0.0
  0
VERTEX
  5
96B
  8
LAYER_1
 62
   250
 10
-32.7779
 20
101.2615
 30
0.0
  0
VERTEX
  5
96C
  8
LAYER_1
 62
   250
 10
-32.7779
 20
99.6153
 30
0.0
  0
VERTEX
  5
96D
  8
LAYER_1
 62
   250
 10
-33.0272
 20
99.6153
 30
0.0
  0
SEQEND
  5
96E
  8
LAYER_1
 62
   250
  0
POLYLINE
  5
69
  8
LAYER_1
 62
   250
 66
     1
 10
0.0
 20
0.0
 30
0.0
 70
     1
  0
VERTEX
  5
96F
  8
LAYER_1
 62
   250
 10
-31.6995
 20
99.8651
 30
0.0
  0
VERTEX
  5
970
  8
LAYER_1
 62
   250
 10
-31.6593
 20
99.6185
 30
0.0
  0
VERTEX
  5
971
  8
LAYER_1
 62
   250
 10
-31.8699
 20
99.5936
 30
0.0
  0
VERTEX
  5
972
  8
LAYER_1
 62
   250
 10
-32.005
 20
99.6056
 30
0.0
  0
VERTEX
  5
973
  8
LAYER_1
 62
   250
 10
-32.1059
 20
99.6418
 30
0.0
  0
VERTEX
  5
974
  8
LAYER_1
 62
   250
 10
-32.2234
 20
99.7682
 30
0.0
  0
VERTEX
  5
975
  8
LAYER_1
 62
   250
 10
-32.2577
 20
100.0974
 30
0.0
  0
VERTEX
  5
976
  8
LAYER_1
 62
   250
 10
-32.2577
 20
101.0446
 30
0.0
  0
VERTEX
  5
977
  8
LAYER_1
 62
   250
 10
-32.4625
 20
101.0446
 30
0.0
  0
VERTEX
  5
978
  8
LAYER_1
 62
   250
 10
-32.4625
 20
101.2615
 30
0.0
  0
VERTEX
  5
979
  8
LAYER_1
 62
   250
 10
-32.2577
 20
101.2615
 30
0.0
  0
VERTEX
  5
97A
  8
LAYER_1
 62
   250
 10
-32.2577
 20
101.6695
 30
0.0
  0
VERTEX
  5
97B
  8
LAYER_1
 62
   250
 10
-31.9799
 20
101.8367
 30
0.0
  0
VERTEX
  5
97C
  8
LAYER_1
 62
   250
 10
-31.9799
 20
101.2615
 30
0.0
  0
VERTEX
  5
97D
  8
LAYER_1
 62
   250
 10
-31.6995
 20
101.2615
 30
0.0
  0
VERTEX
  5
97E
  8
LAYER_1
 62
   250
 10
-31.6995
 20
101.0446
 30
0.0
  0
VERTEX
  5
97F
  8
LAYER_1
 62
   250
 10
-31.9799
 20
101.0446
 30
0.0
  0
VERTEX
  5
980
  8
LAYER_1
 62
   250
 10
-31.9799
 20
100.082
 30
0.0
  0
VERTEX
  5
981
  8
LAYER_1
 62
   250
 10
-31.9656
 20
99.9286
 30
0.0
  0
VERTEX
  5
982
  8
LAYER_1
 62
   250
 10
-31.9175
 20
99.8741
 30
0.0
  0
VERTEX
  5
983
  8
LAYER_1
 62
   250
 10
-31.8222
 20
99.854
 30
0.0
  0
VERTEX
  5
984
  8
LAYER_1
 62
   250
 10
-31.6995
 20
99.8651
 30
0.0
  0
SEQEND
  5
985
  8
LAYER_1
 62
   250
  0
POLYLINE
  5
6A
  8
LAYER_1
 62
   250
 66
     1
 10
0.0
 20
0.0
 30
0.0
 70
     1
  0
VERTEX
  5
986
  8
LAYER_1
 62
   250
 10
-31.4989
 20
100.4387
 30
0.0
  0
VERTEX
  5
987
  8
LAYER_1
 62
   250
 10
-31.483
 20
100.6525
 30
0.0
  0
VERTEX
  5
988
  8
LAYER_1
 62
   250
 10
-31.4353
 20
100.8367
 30
0.0
  0
VERTEX
  5
989
  8
LAYER_1
 62
   250
 10
-31.3995
 20
100.9176
 30
0.0
  0
VERTEX
  5
98A
  8
LAYER_1
 62
   250
 10
-31.3558
 20
100.9912
 30
0.0
  0
VERTEX
  5
98B
  8
LAYER_1
 62
   250
 10
-31.3041
 20
101.0573
 30
0.0
  0
VERTEX
  5
98C
  8
LAYER_1
 62
   250
 10
-31.2444
 20
101.116
 30
0.0
  0
VERTEX
  5
98D
  8
LAYER_1
 62
   250
 10
-31.1326
 20
101.196
 30
0.0
  0
VERTEX
  5
98E
  8
LAYER_1
 62
   250
 10
-31.009
 20
101.2532
 30
0.0
  0
VERTEX
  5
98F
  8
LAYER_1
 62
   250
 10
-30.8738
 20
101.2876
 30
0.0
  0
VERTEX
  5
990
  8
LAYER_1
 62
   250
 10
-30.7268
 20
101.2991
 30
0.0
  0
VERTEX
  5
991
  8
LAYER_1
 62
   250
 10
-30.5647
 20
101.2852
 30
0.0
  0
VERTEX
  5
992
  8
LAYER_1
 62
   250
 10
-30.4181
 20
101.2435
 30
0.0
  0
VERTEX
  5
993
  8
LAYER_1
 62
   250
 10
-30.2871
 20
101.1738
 30
0.0
  0
VERTEX
  5
994
  8
LAYER_1
 62
   250
 10
-30.1717
 20
101.0763
 30
0.0
  0
VERTEX
  5
995
  8
LAYER_1
 62
   250
 10
-30.0774
 20
100.9546
 30
0.0
  0
VERTEX
  5
996
  8
LAYER_1
 62
   250
 10
-30.0101
 20
100.8116
 30
0.0
  0
VERTEX
  5
997
  8
LAYER_1
 62
   250
 10
-29.9698
 20
100.6474
 30
0.0
  0
VERTEX
  5
998
  8
LAYER_1
 62
   250
 10
-29.9564
 20
100.462
 30
0.0
  0
VERTEX
  5
999
  8
LAYER_1
 62
   250
 10
-29.9623
 20
100.3114
 30
0.0
  0
VERTEX
  5
99A
  8
LAYER_1
 62
   250
 10
-29.9802
 20
100.1778
 30
0.0
  0
VERTEX
  5
99B
  8
LAYER_1
 62
   250
 10
-30.0099
 20
100.0613
 30
0.0
  0
VERTEX
  5
99C
  8
LAYER_1
 62
   250
 10
-30.0516
 20
99.9619
 30
0.0
  0
VERTEX
  5
99D
  8
LAYER_1
 62
   250
 10
-30.1047
 20
99.8758
 30
0.0
  0
VERTEX
  5
99E
  8
LAYER_1
 62
   250
 10
-30.1686
 20
99.7999
 30
0.0
  0
VERTEX
  5
99F
  8
LAYER_1
 62
   250
 10
-30.2434
 20
99.7343
 30
0.0
  0
VERTEX
  5
9A0
  8
LAYER_1
 62
   250
 10
-30.3289
 20
99.6788
 30
0.0
  0
VERTEX
  5
9A1
  8
LAYER_1
 62
   250
 10
-30.4222
 20
99.6347
 30
0.0
  0
VERTEX
  5
9A2
  8
LAYER_1
 62
   250
 10
-30.5195
 20
99.6034
 30
0.0
  0
VERTEX
  5
9A3
  8
LAYER_1
 62
   250
 10
-30.621
 20
99.5846
 30
0.0
  0
VERTEX
  5
9A4
  8
LAYER_1
 62
   250
 10
-30.7268
 20
99.5783
 30
0.0
  0
VERTEX
  5
9A5
  8
LAYER_1
 62
   250
 10
-30.8912
 20
99.5921
 30
0.0
  0
VERTEX
  5
9A6
  8
LAYER_1
 62
   250
 10
-31.0392
 20
99.6336
 30
0.0
  0
VERTEX
  5
9A7
  8
LAYER_1
 62
   250
 10
-31.1706
 20
99.7028
 30
0.0
  0
VERTEX
  5
9A8
  8
LAYER_1
 62
   250
 10
-31.2856
 20
99.8
 30
0.0
  0
VERTEX
  5
9A9
  8
LAYER_1
 62
   250
 10
-31.379
 20
99.9229
 30
0.0
  0
VERTEX
  5
9AA
  8
LAYER_1
 62
   250
 10
-31.4457
 20
100.0703
 30
0.0
  0
VERTEX
  5
9AB
  8
LAYER_1
 62
   250
 10
-31.4856
 20
100.2422
 30
0.0
  0
VERTEX
  5
9AC
  8
LAYER_1
 62
   250
 10
-31.4989
 20
100.4387
 30
0.0
  0
SEQEND
  5
9AD
  8
LAYER_1
 62
   250
  0
POLYLINE
  5
6B
  8
LAYER_1
 62
   250
 66
     1
 10
0.0
 20
0.0
 30
0.0
 70
     1
  0
VERTEX
  5
9AE
  8
LAYER_1
 62
   250
 10
-31.2121
 20
100.4387
 30
0.0
  0
VERTEX
  5
9AF
  8
LAYER_1
 62
   250
 10
-31.2035
 20
100.2903
 30
0.0
  0
VERTEX
  5
9B0
  8
LAYER_1
 62
   250
 10
-31.1776
 20
100.162
 30
0.0
  0
VERTEX
  5
9B1
  8
LAYER_1
 62
   250
 10
-31.1344
 20
100.0536
 30
0.0
  0
VERTEX
  5
9B2
  8
LAYER_1
 62
   250
 10
-31.074
 20
99.9651
 30
0.0
  0
VERTEX
  5
9B3
  8
LAYER_1
 62
   250
 10
-31.0005
 20
99.896
 30
0.0
  0
VERTEX
  5
9B4
  8
LAYER_1
 62
   250
 10
-30.9181
 20
99.8468
 30
0.0
  0
VERTEX
  5
9B5
  8
LAYER_1
 62
   250
 10
-30.8268
 20
99.8172
 30
0.0
  0
VERTEX
  5
9B6
  8
LAYER_1
 62
   250
 10
-30.7268
 20
99.8074
 30
0.0
  0
VERTEX
  5
9B7
  8
LAYER_1
 62
   250
 10
-30.6272
 20
99.8173
 30
0.0
  0
VERTEX
  5
9B8
  8
LAYER_1
 62
   250
 10
-30.5363
 20
99.847
 30
0.0
  0
VERTEX
  5
9B9
  8
LAYER_1
 62
   250
 10
-30.4542
 20
99.8965
 30
0.0
  0
VERTEX
  5
9BA
  8
LAYER_1
 62
   250
 10
-30.3808
 20
99.9656
 30
0.0
  0
VERTEX
  5
9BB
  8
LAYER_1
 62
   250
 10
-30.3207
 20
100.055
 30
0.0
  0
VERTEX
  5
9BC
  8
LAYER_1
 62
   250
 10
-30.2777
 20
100.1652
 30
0.0
  0
VERTEX
  5
9BD
  8
LAYER_1
 62
   250
 10
-30.2518
 20
100.2961
 30
0.0
  0
VERTEX
  5
9BE
  8
LAYER_1
 62
   250
 10
-30.2432
 20
100.4477
 30
0.0
  0
VERTEX
  5
9BF
  8
LAYER_1
 62
   250
 10
-30.2518
 20
100.5912
 30
0.0
  0
VERTEX
  5
9C0
  8
LAYER_1
 62
   250
 10
-30.2778
 20
100.7163
 30
0.0
  0
VERTEX
  5
9C1
  8
LAYER_1
 62
   250
 10
-30.3211
 20
100.8228
 30
0.0
  0
VERTEX
  5
9C2
  8
LAYER_1
 62
   250
 10
-30.3818
 20
100.9107
 30
0.0
  0
VERTEX
  5
9C3
  8
LAYER_1
 62
   250
 10
-30.4554
 20
100.9795
 30
0.0
  0
VERTEX
  5
9C4
  8
LAYER_1
 62
   250
 10
-30.5375
 20
101.0286
 30
0.0
  0
VERTEX
  5
9C5
  8
LAYER_1
 62
   250
 10
-30.6279
 20
101.0581
 30
0.0
  0
VERTEX
  5
9C6
  8
LAYER_1
 62
   250
 10
-30.7268
 20
101.0679
 30
0.0
  0
VERTEX
  5
9C7
  8
LAYER_1
 62
   250
 10
-30.8268
 20
101.0581
 30
0.0
  0
VERTEX
  5
9C8
  8
LAYER_1
 62
   250
 10
-30.9181
 20
101.0287
 30
0.0
  0
VERTEX
  5
9C9
  8
LAYER_1
 62
   250
 10
-31.0005
 20
100.9797
 30
0.0
  0
VERTEX
  5
9CA
  8
LAYER_1
 62
   250
 10
-31.074
 20
100.9112
 30
0.0
  0
VERTEX
  5
9CB
  8
LAYER_1
 62
   250
 10
-31.1344
 20
100.823
 30
0.0
  0
VERTEX
  5
9CC
  8
LAYER_1
 62
   250
 10
-31.1776
 20
100.7149
 30
0.0
  0
VERTEX
  5
9CD
  8
LAYER_1
 62
   250
 10
-31.2035
 20
100.5867
 30
0.0
  0
VERTEX
  5
9CE
  8
LAYER_1
 62
   250
 10
-31.2121
 20
100.4387
 30
0.0
  0
SEQEND
  5
9CF
  8
LAYER_1
 62
   250
  0
POLYLINE
  5
6C
  8
LAYER_1
 62
   250
 66
     1
 10
0.0
 20
0.0
 30
0.0
 70
     1
  0
VERTEX
  5
9D0
  8
LAYER_1
 62
   250
 10
-29.6002
 20
99.6153
 30
0.0
  0
VERTEX
  5
9D1
  8
LAYER_1
 62
   250
 10
-29.6002
 20
101.2615
 30
0.0
  0
VERTEX
  5
9D2
  8
LAYER_1
 62
   250
 10
-29.3494
 20
101.2615
 30
0.0
  0
VERTEX
  5
9D3
  8
LAYER_1
 62
   250
 10
-29.3494
 20
101.0123
 30
0.0
  0
VERTEX
  5
9D4
  8
LAYER_1
 62
   250
 10
-29.2569
 20
101.1574
 30
0.0
  0
VERTEX
  5
9D5
  8
LAYER_1
 62
   250
 10
-29.1716
 20
101.243
 30
0.0
  0
VERTEX
  5
9D6
  8
LAYER_1
 62
   250
 10
-28.9927
 20
101.2991
 30
0.0
  0
VERTEX
  5
9D7
  8
LAYER_1
 62
   250
 10
-28.9218
 20
101.2934
 30
0.0
  0
VERTEX
  5
9D8
  8
LAYER_1
 62
   250
 10
-28.8505
 20
101.2765
 30
0.0
  0
VERTEX
  5
9D9
  8
LAYER_1
 62
   250
 10
-28.7786
 20
101.2484
 30
0.0
  0
VERTEX
  5
9DA
  8
LAYER_1
 62
   250
 10
-28.7059
 20
101.2092
 30
0.0
  0
VERTEX
  5
9DB
  8
LAYER_1
 62
   250
 10
-28.8022
 20
100.9499
 30
0.0
  0
VERTEX
  5
9DC
  8
LAYER_1
 62
   250
 10
-29.0065
 20
101.0107
 30
0.0
  0
VERTEX
  5
9DD
  8
LAYER_1
 62
   250
 10
-29.1711
 20
100.9557
 30
0.0
  0
VERTEX
  5
9DE
  8
LAYER_1
 62
   250
 10
-29.2748
 20
100.8028
 30
0.0
  0
VERTEX
  5
9DF
  8
LAYER_1
 62
   250
 10
-29.3214
 20
100.4773
 30
0.0
  0
VERTEX
  5
9E0
  8
LAYER_1
 62
   250
 10
-29.3214
 20
99.6153
 30
0.0
  0
VERTEX
  5
9E1
  8
LAYER_1
 62
   250
 10
-29.6002
 20
99.6153
 30
0.0
  0
SEQEND
  5
9E2
  8
LAYER_1
 62
   250
  0
POLYLINE
  5
6D
  8
LAYER_1
 62
   250
 66
     1
 10
0.0
 20
0.0
 30
0.0
 70
     1
  0
VERTEX
  5
9E3
  8
LAYER_1
 62
   250
 10
-27.4337
 20
99.8185
 30
0.0
  0
VERTEX
  5
9E4
  8
LAYER_1
 62
   250
 10
-27.7322
 20
99.6322
 30
0.0
  0
VERTEX
  5
9E5
  8
LAYER_1
 62
   250
 10
-28.0402
 20
99.5783
 30
0.0
  0
VERTEX
  5
9E6
  8
LAYER_1
 62
   250
 10
-28.168
 20
99.5865
 30
0.0
  0
VERTEX
  5
9E7
  8
LAYER_1
 62
   250
 10
-28.28
 20
99.6113
 30
0.0
  0
VERTEX
  5
9E8
  8
LAYER_1
 62
   250
 10
-28.3764
 20
99.6526
 30
0.0
  0
VERTEX
  5
9E9
  8
LAYER_1
 62
   250
 10
-28.4571
 20
99.7106
 30
0.0
  0
VERTEX
  5
9EA
  8
LAYER_1
 62
   250
 10
-28.5207
 20
99.7815
 30
0.0
  0
VERTEX
  5
9EB
  8
LAYER_1
 62
   250
 10
-28.5662
 20
99.8616
 30
0.0
  0
VERTEX
  5
9EC
  8
LAYER_1
 62
   250
 10
-28.5936
 20
99.9509
 30
0.0
  0
VERTEX
  5
9ED
  8
LAYER_1
 62
   250
 10
-28.6027
 20
100.0492
 30
0.0
  0
VERTEX
  5
9EE
  8
LAYER_1
 62
   250
 10
-28.5476
 20
100.2704
 30
0.0
  0
VERTEX
  5
9EF
  8
LAYER_1
 62
   250
 10
-28.4037
 20
100.4307
 30
0.0
  0
VERTEX
  5
9F0
  8
LAYER_1
 62
   250
 10
-28.2026
 20
100.5223
 30
0.0
  0
VERTEX
  5
9F1
  8
LAYER_1
 62
   250
 10
-27.955
 20
100.5641
 30
0.0
  0
VERTEX
  5
9F2
  8
LAYER_1
 62
   250
 10
-27.457
 20
100.6604
 30
0.0
  0
VERTEX
  5
9F3
  8
LAYER_1
 62
   250
 10
-27.4554
 20
100.7329
 30
0.0
  0
VERTEX
  5
9F4
  8
LAYER_1
 62
   250
 10
-27.4604
 20
100.812
 30
0.0
  0
VERTEX
  5
9F5
  8
LAYER_1
 62
   250
 10
-27.4753
 20
100.8784
 30
0.0
  0
VERTEX
  5
9F6
  8
LAYER_1
 62
   250
 10
-27.5001
 20
100.9322
 30
0.0
  0
VERTEX
  5
9F7
  8
LAYER_1
 62
   250
 10
-27.5348
 20
100.9731
 30
0.0
  0
VERTEX
  5
9F8
  8
LAYER_1
 62
   250
 10
-27.5946
 20
101.0147
 30
0.0
  0
VERTEX
  5
9F9
  8
LAYER_1
 62
   250
 10
-27.6676
 20
101.0443
 30
0.0
  0
VERTEX
  5
9FA
  8
LAYER_1
 62
   250
 10
-27.7535
 20
101.062
 30
0.0
  0
VERTEX
  5
9FB
  8
LAYER_1
 62
   250
 10
-27.8523
 20
101.0679
 30
0.0
  0
VERTEX
  5
9FC
  8
LAYER_1
 62
   250
 10
-27.9443
 20
101.0636
 30
0.0
  0
VERTEX
  5
9FD
  8
LAYER_1
 62
   250
 10
-28.0234
 20
101.0508
 30
0.0
  0
VERTEX
  5
9FE
  8
LAYER_1
 62
   250
 10
-28.0898
 20
101.0293
 30
0.0
  0
VERTEX
  5
9FF
  8
LAYER_1
 62
   250
 10
-28.1434
 20
100.9991
 30
0.0
  0
VERTEX
  5
A00
  8
LAYER_1
 62
   250
 10
-28.1871
 20
100.9579
 30
0.0
  0
VERTEX
  5
A01
  8
LAYER_1
 62
   250
 10
-28.2248
 20
100.9034
 30
0.0
  0
VERTEX
  5
A02
  8
LAYER_1
 62
   250
 10
-28.2564
 20
100.8356
 30
0.0
  0
VERTEX
  5
A03
  8
LAYER_1
 62
   250
 10
-28.282
 20
100.7546
 30
0.0
  0
VERTEX
  5
A04
  8
LAYER_1
 62
   250
 10
-28.5545
 20
100.7922
 30
0.0
  0
VERTEX
  5
A05
  8
LAYER_1
 62
   250
 10
-28.5053
 20
100.9503
 30
0.0
  0
VERTEX
  5
A06
  8
LAYER_1
 62
   250
 10
-28.4323
 20
101.0747
 30
0.0
  0
VERTEX
  5
A07
  8
LAYER_1
 62
   250
 10
-28.385
 20
101.1256
 30
0.0
  0
VERTEX
  5
A08
  8
LAYER_1
 62
   250
 10
-28.3281
 20
101.1703
 30
0.0
  0
VERTEX
  5
A09
  8
LAYER_1
 62
   250
 10
-28.2616
 20
101.2088
 30
0.0
  0
VERTEX
  5
A0A
  8
LAYER_1
 62
   250
 10
-28.1857
 20
101.2409
 30
0.0
  0
VERTEX
  5
A0B
  8
LAYER_1
 62
   250
 10
-28.0118
 20
101.2845
 30
0.0
  0
VERTEX
  5
A0C
  8
LAYER_1
 62
   250
 10
-27.8121
 20
101.2991
 30
0.0
  0
VERTEX
  5
A0D
  8
LAYER_1
 62
   250
 10
-27.6211
 20
101.2866
 30
0.0
  0
VERTEX
  5
A0E
  8
LAYER_1
 62
   250
 10
-27.4697
 20
101.2494
 30
0.0
  0
VERTEX
  5
A0F
  8
LAYER_1
 62
   250
 10
-27.2755
 20
101.1245
 30
0.0
  0
VERTEX
  5
A10
  8
LAYER_1
 62
   250
 10
-27.1887
 20
100.9345
 30
0.0
  0
VERTEX
  5
A11
  8
LAYER_1
 62
   250
 10
-27.175
 20
100.6773
 30
0.0
  0
VERTEX
  5
A12
  8
LAYER_1
 62
   250
 10
-27.175
 20
100.3053
 30
0.0
  0
VERTEX
  5
A13
  8
LAYER_1
 62
   250
 10
-27.157
 20
99.8132
 30
0.0
  0
VERTEX
  5
A14
  8
LAYER_1
 62
   250
 10
-27.0866
 20
99.6153
 30
0.0
  0
VERTEX
  5
A15
  8
LAYER_1
 62
   250
 10
-27.3782
 20
99.6153
 30
0.0
  0
VERTEX
  5
A16
  8
LAYER_1
 62
   250
 10
-27.4337
 20
99.8185
 30
0.0
  0
SEQEND
  5
A17
  8
LAYER_1
 62
   250
  0
POLYLINE
  5
6E
  8
LAYER_1
 62
   250
 66
     1
 10
0.0
 20
0.0
 30
0.0
 70
     1
  0
VERTEX
  5
A18
  8
LAYER_1
 62
   250
 10
-27.457
 20
100.4419
 30
0.0
  0
VERTEX
  5
A19
  8
LAYER_1
 62
   250
 10
-27.9126
 20
100.336
 30
0.0
  0
VERTEX
  5
A1A
  8
LAYER_1
 62
   250
 10
-28.1561
 20
100.2805
 30
0.0
  0
VERTEX
  5
A1B
  8
LAYER_1
 62
   250
 10
-28.2661
 20
100.1894
 30
0.0
  0
VERTEX
  5
A1C
  8
LAYER_1
 62
   250
 10
-28.3053
 20
100.0572
 30
0.0
  0
VERTEX
  5
A1D
  8
LAYER_1
 62
   250
 10
-28.3
 20
100.0036
 30
0.0
  0
VERTEX
  5
A1E
  8
LAYER_1
 62
   250
 10
-28.284
 20
99.9547
 30
0.0
  0
VERTEX
  5
A1F
  8
LAYER_1
 62
   250
 10
-28.2575
 20
99.9105
 30
0.0
  0
VERTEX
  5
A20
  8
LAYER_1
 62
   250
 10
-28.2206
 20
99.8709
 30
0.0
  0
VERTEX
  5
A21
  8
LAYER_1
 62
   250
 10
-28.1736
 20
99.8386
 30
0.0
  0
VERTEX
  5
A22
  8
LAYER_1
 62
   250
 10
-28.1167
 20
99.8154
 30
0.0
  0
VERTEX
  5
A23
  8
LAYER_1
 62
   250
 10
-28.05
 20
99.8015
 30
0.0
  0
VERTEX
  5
A24
  8
LAYER_1
 62
   250
 10
-27.9735
 20
99.7968
 30
0.0
  0
VERTEX
  5
A25
  8
LAYER_1
 62
   250
 10
-27.8212
 20
99.8143
 30
0.0
  0
VERTEX
  5
A26
  8
LAYER_1
 62
   250
 10
-27.6867
 20
99.8672
 30
0.0
  0
VERTEX
  5
A27
  8
LAYER_1
 62
   250
 10
-27.6281
 20
99.9058
 30
0.0
  0
VERTEX
  5
A28
  8
LAYER_1
 62
   250
 10
-27.5777
 20
99.9509
 30
0.0
  0
VERTEX
  5
A29
  8
LAYER_1
 62
   250
 10
-27.5356
 20
100.0024
 30
0.0
  0
VERTEX
  5
A2A
  8
LAYER_1
 62
   250
 10
-27.502
 20
100.0603
 30
0.0
  0
VERTEX
  5
A2B
  8
LAYER_1
 62
   250
 10
-27.457
 20
100.3392
 30
0.0
  0
VERTEX
  5
A2C
  8
LAYER_1
 62
   250
 10
-27.457
 20
100.4419
 30
0.0
  0
SEQEND
  5
A2D
  8
LAYER_1
 62
   250
  0
POLYLINE
  5
6F
  8
LAYER_1
 62
   250
 66
     1
 10
0.0
 20
0.0
 30
0.0
 70
     1
  0
VERTEX
  5
A2E
  8
LAYER_1
 62
   250
 10
-26.7103
 20
99.6153
 30
0.0
  0
VERTEX
  5
A2F
  8
LAYER_1
 62
   250
 10
-26.7103
 20
101.2615
 30
0.0
  0
VERTEX
  5
A30
  8
LAYER_1
 62
   250
 10
-26.4595
 20
101.2615
 30
0.0
  0
VERTEX
  5
A31
  8
LAYER_1
 62
   250
 10
-26.4595
 20
101.0276
 30
0.0
  0
VERTEX
  5
A32
  8
LAYER_1
 62
   250
 10
-26.3586
 20
101.1464
 30
0.0
  0
VERTEX
  5
A33
  8
LAYER_1
 62
   250
 10
-26.2376
 20
101.2312
 30
0.0
  0
VERTEX
  5
A34
  8
LAYER_1
 62
   250
 10
-26.0966
 20
101.2821
 30
0.0
  0
VERTEX
  5
A35
  8
LAYER_1
 62
   250
 10
-25.9356
 20
101.2991
 30
0.0
  0
VERTEX
  5
A36
  8
LAYER_1
 62
   250
 10
-25.6621
 20
101.2457
 30
0.0
  0
VERTEX
  5
A37
  8
LAYER_1
 62
   250
 10
-25.5528
 20
101.1836
 30
0.0
  0
VERTEX
  5
A38
  8
LAYER_1
 62
   250
 10
-25.4753
 20
101.1049
 30
0.0
  0
VERTEX
  5
A39
  8
LAYER_1
 62
   250
 10
-25.388
 20
100.8991
 30
0.0
  0
VERTEX
  5
A3A
  8
LAYER_1
 62
   250
 10
-25.3726
 20
100.6276
 30
0.0
  0
VERTEX
  5
A3B
  8
LAYER_1
 62
   250
 10
-25.3726
 20
99.6153
 30
0.0
  0
VERTEX
  5
A3C
  8
LAYER_1
 62
   250
 10
-25.652
 20
99.6153
 30
0.0
  0
VERTEX
  5
A3D
  8
LAYER_1
 62
   250
 10
-25.652
 20
100.617
 30
0.0
  0
VERTEX
  5
A3E
  8
LAYER_1
 62
   250
 10
-25.6843
 20
100.8721
 30
0.0
  0
VERTEX
  5
A3F
  8
LAYER_1
 62
   250
 10
-25.7295
 20
100.9478
 30
0.0
  0
VERTEX
  5
A40
  8
LAYER_1
 62
   250
 10
-25.7997
 20
101.0065
 30
0.0
  0
VERTEX
  5
A41
  8
LAYER_1
 62
   250
 10
-25.9944
 20
101.0573
 30
0.0
  0
VERTEX
  5
A42
  8
LAYER_1
 62
   250
 10
-26.0805
 20
101.0502
 30
0.0
  0
VERTEX
  5
A43
  8
LAYER_1
 62
   250
 10
-26.1605
 20
101.0289
 30
0.0
  0
VERTEX
  5
A44
  8
LAYER_1
 62
   250
 10
-26.2344
 20
100.9934
 30
0.0
  0
VERTEX
  5
A45
  8
LAYER_1
 62
   250
 10
-26.3024
 20
100.944
 30
0.0
  0
VERTEX
  5
A46
  8
LAYER_1
 62
   250
 10
-26.3589
 20
100.8747
 30
0.0
  0
VERTEX
  5
A47
  8
LAYER_1
 62
   250
 10
-26.3993
 20
100.78
 30
0.0
  0
VERTEX
  5
A48
  8
LAYER_1
 62
   250
 10
-26.4235
 20
100.66
 30
0.0
  0
VERTEX
  5
A49
  8
LAYER_1
 62
   250
 10
-26.4315
 20
100.5144
 30
0.0
  0
VERTEX
  5
A4A
  8
LAYER_1
 62
   250
 10
-26.4315
 20
99.6153
 30
0.0
  0
VERTEX
  5
A4B
  8
LAYER_1
 62
   250
 10
-26.7103
 20
99.6153
 30
0.0
  0
SEQEND
  5
A4C
  8
LAYER_1
 62
   250
  0
POLYLINE
  5
70
  8
LAYER_1
 62
   250
 66
     1
 10
0.0
 20
0.0
 30
0.0
 70
     1
  0
VERTEX
  5
A4D
  8
LAYER_1
 62
   250
 10
-24.9641
 20
99.4788
 30
0.0
  0
VERTEX
  5
A4E
  8
LAYER_1
 62
   250
 10
-24.6926
 20
99.4386
 30
0.0
  0
VERTEX
  5
A4F
  8
LAYER_1
 62
   250
 10
-24.6804
 20
99.3801
 30
0.0
  0
VERTEX
  5
A50
  8
LAYER_1
 62
   250
 10
-24.6606
 20
99.3301
 30
0.0
  0
VERTEX
  5
A51
  8
LAYER_1
 62
   250
 10
-24.6332
 20
99.2886
 30
0.0
  0
VERTEX
  5
A52
  8
LAYER_1
 62
   250
 10
-24.5984
 20
99.2555
 30
0.0
  0
VERTEX
  5
A53
  8
LAYER_1
 62
   250
 10
-24.5417
 20
99.2217
 30
0.0
  0
VERTEX
  5
A54
  8
LAYER_1
 62
   250
 10
-24.4755
 20
99.1976
 30
0.0
  0
VERTEX
  5
A55
  8
LAYER_1
 62
   250
 10
-24.3998
 20
99.1831
 30
0.0
  0
VERTEX
  5
A56
  8
LAYER_1
 62
   250
 10
-24.3148
 20
99.1782
 30
0.0
  0
VERTEX
  5
A57
  8
LAYER_1
 62
   250
 10
-24.2232
 20
99.1831
 30
0.0
  0
VERTEX
  5
A58
  8
LAYER_1
 62
   250
 10
-24.1428
 20
99.1976
 30
0.0
  0
VERTEX
  5
A59
  8
LAYER_1
 62
   250
 10
-24.0736
 20
99.2217
 30
0.0
  0
VERTEX
  5
A5A
  8
LAYER_1
 62
   250
 10
-24.0153
 20
99.2555
 30
0.0
  0
VERTEX
  5
A5B
  8
LAYER_1
 62
   250
 10
-23.9669
 20
99.2982
 30
0.0
  0
VERTEX
  5
A5C
  8
LAYER_1
 62
   250
 10
-23.927
 20
99.3487
 30
0.0
  0
VERTEX
  5
A5D
  8
LAYER_1
 62
   250
 10
-23.8958
 20
99.4067
 30
0.0
  0
VERTEX
  5
A5E
  8
LAYER_1
 62
   250
 10
-23.8729
 20
99.4724
 30
0.0
  0
VERTEX
  5
A5F
  8
LAYER_1
 62
   250
 10
-23.8528
 20
99.8307
 30
0.0
  0
VERTEX
  5
A60
  8
LAYER_1
 62
   250
 10
-23.9497
 20
99.7365
 30
0.0
  0
VERTEX
  5
A61
  8
LAYER_1
 62
   250
 10
-24.058
 20
99.6692
 30
0.0
  0
VERTEX
  5
A62
  8
LAYER_1
 62
   250
 10
-24.1775
 20
99.6288
 30
0.0
  0
VERTEX
  5
A63
  8
LAYER_1
 62
   250
 10
-24.3084
 20
99.6153
 30
0.0
  0
VERTEX
  5
A64
  8
LAYER_1
 62
   250
 10
-24.4687
 20
99.6306
 30
0.0
  0
VERTEX
  5
A65
  8
LAYER_1
 62
   250
 10
-24.6097
 20
99.6765
 30
0.0
  0
VERTEX
  5
A66
  8
LAYER_1
 62
   250
 10
-24.7314
 20
99.753
 30
0.0
  0
VERTEX
  5
A67
  8
LAYER_1
 62
   250
 10
-24.8339
 20
99.8603
 30
0.0
  0
VERTEX
  5
A68
  8
LAYER_1
 62
   250
 10
-24.9152
 20
99.9888
 30
0.0
  0
VERTEX
  5
A69
  8
LAYER_1
 62
   250
 10
-24.9735
 20
100.1296
 30
0.0
  0
VERTEX
  5
A6A
  8
LAYER_1
 62
   250
 10
-25.0085
 20
100.2826
 30
0.0
  0
VERTEX
  5
A6B
  8
LAYER_1
 62
   250
 10
-25.0202
 20
100.4477
 30
0.0
  0
VERTEX
  5
A6C
  8
LAYER_1
 62
   250
 10
-25.0148
 20
100.5633
 30
0.0
  0
VERTEX
  5
A6D
  8
LAYER_1
 62
   250
 10
-24.9988
 20
100.6743
 30
0.0
  0
VERTEX
  5
A6E
  8
LAYER_1
 62
   250
 10
-24.9722
 20
100.7808
 30
0.0
  0
VERTEX
  5
A6F
  8
LAYER_1
 62
   250
 10
-24.935
 20
100.8827
 30
0.0
  0
VERTEX
  5
A70
  8
LAYER_1
 62
   250
 10
-24.8874
 20
100.9766
 30
0.0
  0
VERTEX
  5
A71
  8
LAYER_1
 62
   250
 10
-24.8302
 20
101.0593
 30
0.0
  0
VERTEX
  5
A72
  8
LAYER_1
 62
   250
 10
-24.7635
 20
101.1306
 30
0.0
  0
VERTEX
  5
A73
  8
LAYER_1
 62
   250
 10
-24.6873
 20
101.1906
 30
0.0
  0
VERTEX
  5
A74
  8
LAYER_1
 62
   250
 10
-24.6028
 20
101.2379
 30
0.0
  0
VERTEX
  5
A75
  8
LAYER_1
 62
   250
 10
-24.5112
 20
101.2719
 30
0.0
  0
VERTEX
  5
A76
  8
LAYER_1
 62
   250
 10
-24.4125
 20
101.2923
 30
0.0
  0
VERTEX
  5
A77
  8
LAYER_1
 62
   250
 10
-24.3069
 20
101.2991
 30
0.0
  0
VERTEX
  5
A78
  8
LAYER_1
 62
   250
 10
-24.1676
 20
101.2843
 30
0.0
  0
VERTEX
  5
A79
  8
LAYER_1
 62
   250
 10
-24.041
 20
101.2401
 30
0.0
  0
VERTEX
  5
A7A
  8
LAYER_1
 62
   250
 10
-23.9273
 20
101.1663
 30
0.0
  0
VERTEX
  5
A7B
  8
LAYER_1
 62
   250
 10
-23.8264
 20
101.0631
 30
0.0
  0
VERTEX
  5
A7C
  8
LAYER_1
 62
   250
 10
-23.8264
 20
101.2615
 30
0.0
  0
VERTEX
  5
A7D
  8
LAYER_1
 62
   250
 10
-23.5687
 20
101.2615
 30
0.0
  0
VERTEX
  5
A7E
  8
LAYER_1
 62
   250
 10
-23.5687
 20
99.8386
 30
0.0
  0
VERTEX
  5
A7F
  8
LAYER_1
 62
   250
 10
-23.5736
 20
99.6604
 30
0.0
  0
VERTEX
  5
A80
  8
LAYER_1
 62
   250
 10
-23.5884
 20
99.5102
 30
0.0
  0
VERTEX
  5
A81
  8
LAYER_1
 62
   250
 10
-23.6129
 20
99.3878
 30
0.0
  0
VERTEX
  5
A82
  8
LAYER_1
 62
   250
 10
-23.647
 20
99.2936
 30
0.0
  0
VERTEX
  5
A83
  8
LAYER_1
 62
   250
 10
-23.692
 20
99.2176
 30
0.0
  0
VERTEX
  5
A84
  8
LAYER_1
 62
   250
 10
-23.7483
 20
99.15
 30
0.0
  0
VERTEX
  5
A85
  8
LAYER_1
 62
   250
 10
-23.816
 20
99.0908
 30
0.0
  0
VERTEX
  5
A86
  8
LAYER_1
 62
   250
 10
-23.8952
 20
99.0401
 30
0.0
  0
VERTEX
  5
A87
  8
LAYER_1
 62
   250
 10
-23.985
 20
98.9994
 30
0.0
  0
VERTEX
  5
A88
  8
LAYER_1
 62
   250
 10
-24.0846
 20
98.9703
 30
0.0
  0
VERTEX
  5
A89
  8
LAYER_1
 62
   250
 10
-24.1939
 20
98.9528
 30
0.0
  0
VERTEX
  5
A8A
  8
LAYER_1
 62
   250
 10
-24.3132
 20
98.947
 30
0.0
  0
VERTEX
  5
A8B
  8
LAYER_1
 62
   250
 10
-24.4534
 20
98.9553
 30
0.0
  0
VERTEX
  5
A8C
  8
LAYER_1
 62
   250
 10
-24.5794
 20
98.9803
 30
0.0
  0
VERTEX
  5
A8D
  8
LAYER_1
 62
   250
 10
-24.6913
 20
99.0218
 30
0.0
  0
VERTEX
  5
A8E
  8
LAYER_1
 62
   250
 10
-24.7889
 20
99.0798
 30
0.0
  0
VERTEX
  5
A8F
  8
LAYER_1
 62
   250
 10
-24.868
 20
99.1544
 30
0.0
  0
VERTEX
  5
A90
  8
LAYER_1
 62
   250
 10
-24.9235
 20
99.2458
 30
0.0
  0
VERTEX
  5
A91
  8
LAYER_1
 62
   250
 10
-24.9555
 20
99.3539
 30
0.0
  0
VERTEX
  5
A92
  8
LAYER_1
 62
   250
 10
-24.9641
 20
99.4788
 30
0.0
  0
SEQEND
  5
A93
  8
LAYER_1
 62
   250
  0
POLYLINE
  5
71
  8
LAYER_1
 62
   250
 66
     1
 10
0.0
 20
0.0
 30
0.0
 70
     1
  0
VERTEX
  5
A94
  8
LAYER_1
 62
   250
 10
-24.7334
 20
100.4678
 30
0.0
  0
VERTEX
  5
A95
  8
LAYER_1
 62
   250
 10
-24.7253
 20
100.3168
 30
0.0
  0
VERTEX
  5
A96
  8
LAYER_1
 62
   250
 10
-24.7012
 20
100.1877
 30
0.0
  0
VERTEX
  5
A97
  8
LAYER_1
 62
   250
 10
-24.6608
 20
100.0804
 30
0.0
  0
VERTEX
  5
A98
  8
LAYER_1
 62
   250
 10
-24.6042
 20
99.9952
 30
0.0
  0
VERTEX
  5
A99
  8
LAYER_1
 62
   250
 10
-24.5359
 20
99.93
 30
0.0
  0
VERTEX
  5
A9A
  8
LAYER_1
 62
   250
 10
-24.4594
 20
99.8836
 30
0.0
  0
VERTEX
  5
A9B
  8
LAYER_1
 62
   250
 10
-24.3748
 20
99.8558
 30
0.0
  0
VERTEX
  5
A9C
  8
LAYER_1
 62
   250
 10
-24.282
 20
99.8465
 30
0.0
  0
VERTEX
  5
A9D
  8
LAYER_1
 62
   250
 10
-24.1898
 20
99.8557
 30
0.0
  0
VERTEX
  5
A9E
  8
LAYER_1
 62
   250
 10
-24.1054
 20
99.8835
 30
0.0
  0
VERTEX
  5
A9F
  8
LAYER_1
 62
   250
 10
-24.0287
 20
99.9296
 30
0.0
  0
VERTEX
  5
AA0
  8
LAYER_1
 62
   250
 10
-23.9597
 20
99.9942
 30
0.0
  0
VERTEX
  5
AA1
  8
LAYER_1
 62
   250
 10
-23.9027
 20
100.0788
 30
0.0
  0
VERTEX
  5
AA2
  8
LAYER_1
 62
   250
 10
-23.8621
 20
100.1844
 30
0.0
  0
VERTEX
  5
AA3
  8
LAYER_1
 62
   250
 10
-23.8376
 20
100.3111
 30
0.0
  0
VERTEX
  5
AA4
  8
LAYER_1
 62
   250
 10
-23.8295
 20
100.4588
 30
0.0
  0
VERTEX
  5
AA5
  8
LAYER_1
 62
   250
 10
-23.8379
 20
100.6007
 30
0.0
  0
VERTEX
  5
AA6
  8
LAYER_1
 62
   250
 10
-23.8629
 20
100.7239
 30
0.0
  0
VERTEX
  5
AA7
  8
LAYER_1
 62
   250
 10
-23.9048
 20
100.8285
 30
0.0
  0
VERTEX
  5
AA8
  8
LAYER_1
 62
   250
 10
-23.9634
 20
100.9144
 30
0.0
  0
VERTEX
  5
AA9
  8
LAYER_1
 62
   250
 10
-24.034
 20
100.9815
 30
0.0
  0
VERTEX
  5
AAA
  8
LAYER_1
 62
   250
 10
-24.1114
 20
101.0294
 30
0.0
  0
VERTEX
  5
AAB
  8
LAYER_1
 62
   250
 10
-24.1957
 20
101.0583
 30
0.0
  0
VERTEX
  5
AAC
  8
LAYER_1
 62
   250
 10
-24.2867
 20
101.0679
 30
0.0
  0
VERTEX
  5
AAD
  8
LAYER_1
 62
   250
 10
-24.3761
 20
101.0585
 30
0.0
  0
VERTEX
  5
AAE
  8
LAYER_1
 62
   250
 10
-24.4587
 20
101.0301
 30
0.0
  0
VERTEX
  5
AAF
  8
LAYER_1
 62
   250
 10
-24.5343
 20
100.9828
 30
0.0
  0
VERTEX
  5
AB0
  8
LAYER_1
 62
   250
 10
-24.6032
 20
100.9165
 30
0.0
  0
VERTEX
  5
AB1
  8
LAYER_1
 62
   250
 10
-24.6602
 20
100.8319
 30
0.0
  0
VERTEX
  5
AB2
  8
LAYER_1
 62
   250
 10
-24.7009
 20
100.7289
 30
0.0
  0
VERTEX
  5
AB3
  8
LAYER_1
 62
   250
 10
-24.7253
 20
100.6075
 30
0.0
  0
VERTEX
  5
AB4
  8
LAYER_1
 62
   250
 10
-24.7334
 20
100.4678
 30
0.0
  0
SEQEND
  5
AB5
  8
LAYER_1
 62
   250
  0
POLYLINE
  5
72
  8
LAYER_1
 62
   250
 66
     1
 10
0.0
 20
0.0
 30
0.0
 70
     1
  0
VERTEX
  5
AB6
  8
LAYER_1
 62
   250
 10
-21.9886
 20
100.1455
 30
0.0
  0
VERTEX
  5
AB7
  8
LAYER_1
 62
   250
 10
-21.7002
 20
100.1101
 30
0.0
  0
VERTEX
  5
AB8
  8
LAYER_1
 62
   250
 10
-21.7416
 20
99.9906
 30
0.0
  0
VERTEX
  5
AB9
  8
LAYER_1
 62
   250
 10
-21.7974
 20
99.8854
 30
0.0
  0
VERTEX
  5
ABA
  8
LAYER_1
 62
   250
 10
-21.8678
 20
99.7943
 30
0.0
  0
VERTEX
  5
ABB
  8
LAYER_1
 62
   250
 10
-21.9526
 20
99.7174
 30
0.0
  0
VERTEX
  5
ABC
  8
LAYER_1
 62
   250
 10
-22.0514
 20
99.6566
 30
0.0
  0
VERTEX
  5
ABD
  8
LAYER_1
 62
   250
 10
-22.1629
 20
99.6131
 30
0.0
  0
VERTEX
  5
ABE
  8
LAYER_1
 62
   250
 10
-22.2871
 20
99.587
 30
0.0
  0
VERTEX
  5
ABF
  8
LAYER_1
 62
   250
 10
-22.4241
 20
99.5783
 30
0.0
  0
VERTEX
  5
AC0
  8
LAYER_1
 62
   250
 10
-22.5953
 20
99.5922
 30
0.0
  0
VERTEX
  5
AC1
  8
LAYER_1
 62
   250
 10
-22.7479
 20
99.6338
 30
0.0
  0
VERTEX
  5
AC2
  8
LAYER_1
 62
   250
 10
-22.8816
 20
99.7033
 30
0.0
  0
VERTEX
  5
AC3
  8
LAYER_1
 62
   250
 10
-22.9966
 20
99.8005
 30
0.0
  0
VERTEX
  5
AC4
  8
LAYER_1
 62
   250
 10
-23.0893
 20
99.9228
 30
0.0
  0
VERTEX
  5
AC5
  8
LAYER_1
 62
   250
 10
-23.1554
 20
100.0676
 30
0.0
  0
VERTEX
  5
AC6
  8
LAYER_1
 62
   250
 10
-23.1951
 20
100.2348
 30
0.0
  0
VERTEX
  5
AC7
  8
LAYER_1
 62
   250
 10
-23.2083
 20
100.4244
 30
0.0
  0
VERTEX
  5
AC8
  8
LAYER_1
 62
   250
 10
-23.1949
 20
100.6207
 30
0.0
  0
VERTEX
  5
AC9
  8
LAYER_1
 62
   250
 10
-23.1548
 20
100.7936
 30
0.0
  0
VERTEX
  5
ACA
  8
LAYER_1
 62
   250
 10
-23.0879
 20
100.9432
 30
0.0
  0
VERTEX
  5
ACB
  8
LAYER_1
 62
   250
 10
-22.9945
 20
101.0695
 30
0.0
  0
VERTEX
  5
ACC
  8
LAYER_1
 62
   250
 10
-22.8795
 20
101.1699
 30
0.0
  0
VERTEX
  5
ACD
  8
LAYER_1
 62
   250
 10
-22.7487
 20
101.2416
 30
0.0
  0
VERTEX
  5
ACE
  8
LAYER_1
 62
   250
 10
-22.602
 20
101.2847
 30
0.0
  0
VERTEX
  5
ACF
  8
LAYER_1
 62
   250
 10
-22.4394
 20
101.2991
 30
0.0
  0
VERTEX
  5
AD0
  8
LAYER_1
 62
   250
 10
-22.2819
 20
101.285
 30
0.0
  0
VERTEX
  5
AD1
  8
LAYER_1
 62
   250
 10
-22.1395
 20
101.2428
 30
0.0
  0
VERTEX
  5
AD2
  8
LAYER_1
 62
   250
 10
-22.0122
 20
101.1725
 30
0.0
  0
VERTEX
  5
AD3
  8
LAYER_1
 62
   250
 10
-21.9002
 20
101.0742
 30
0.0
  0
VERTEX
  5
AD4
  8
LAYER_1
 62
   250
 10
-21.8085
 20
100.9504
 30
0.0
  0
VERTEX
  5
AD5
  8
LAYER_1
 62
   250
 10
-21.743
 20
100.8037
 30
0.0
  0
VERTEX
  5
AD6
  8
LAYER_1
 62
   250
 10
-21.7037
 20
100.6341
 30
0.0
  0
VERTEX
  5
AD7
  8
LAYER_1
 62
   250
 10
-21.6906
 20
100.4419
 30
0.0
  0
VERTEX
  5
AD8
  8
LAYER_1
 62
   250
 10
-21.6922
 20
100.3672
 30
0.0
  0
VERTEX
  5
AD9
  8
LAYER_1
 62
   250
 10
-22.9199
 20
100.3672
 30
0.0
  0
VERTEX
  5
ADA
  8
LAYER_1
 62
   250
 10
-22.9046
 20
100.2395
 30
0.0
  0
VERTEX
  5
ADB
  8
LAYER_1
 62
   250
 10
-22.8739
 20
100.1276
 30
0.0
  0
VERTEX
  5
ADC
  8
LAYER_1
 62
   250
 10
-22.8278
 20
100.0317
 30
0.0
  0
VERTEX
  5
ADD
  8
LAYER_1
 62
   250
 10
-22.7664
 20
99.9519
 30
0.0
  0
VERTEX
  5
ADE
  8
LAYER_1
 62
   250
 10
-22.6932
 20
99.8887
 30
0.0
  0
VERTEX
  5
ADF
  8
LAYER_1
 62
   250
 10
-22.6116
 20
99.8435
 30
0.0
  0
VERTEX
  5
AE0
  8
LAYER_1
 62
   250
 10
-22.5213
 20
99.8164
 30
0.0
  0
VERTEX
  5
AE1
  8
LAYER_1
 62
   250
 10
-22.4225
 20
99.8074
 30
0.0
  0
VERTEX
  5
AE2
  8
LAYER_1
 62
   250
 10
-22.3486
 20
99.8125
 30
0.0
  0
VERTEX
  5
AE3
  8
LAYER_1
 62
   250
 10
-22.2804
 20
99.8277
 30
0.0
  0
VERTEX
  5
AE4
  8
LAYER_1
 62
   250
 10
-22.2177
 20
99.853
 30
0.0
  0
VERTEX
  5
AE5
  8
LAYER_1
 62
   250
 10
-22.1605
 20
99.8884
 30
0.0
  0
VERTEX
  5
AE6
  8
LAYER_1
 62
   250
 10
-22.109
 20
99.9345
 30
0.0
  0
VERTEX
  5
AE7
  8
LAYER_1
 62
   250
 10
-22.0632
 20
99.9927
 30
0.0
  0
VERTEX
  5
AE8
  8
LAYER_1
 62
   250
 10
-22.0231
 20
100.0631
 30
0.0
  0
VERTEX
  5
AE9
  8
LAYER_1
 62
   250
 10
-21.9886
 20
100.1455
 30
0.0
  0
SEQEND
  5
AEA
  8
LAYER_1
 62
   250
  0
POLYLINE
  5
73
  8
LAYER_1
 62
   250
 66
     1
 10
0.0
 20
0.0
 30
0.0
 70
     1
  0
VERTEX
  5
AEB
  8
LAYER_1
 62
   250
 10
-22.9045
 20
100.5969
 30
0.0
  0
VERTEX
  5
AEC
  8
LAYER_1
 62
   250
 10
-21.9854
 20
100.5969
 30
0.0
  0
VERTEX
  5
AED
  8
LAYER_1
 62
   250
 10
-21.9988
 20
100.6941
 30
0.0
  0
VERTEX
  5
AEE
  8
LAYER_1
 62
   250
 10
-22.021
 20
100.7785
 30
0.0
  0
VERTEX
  5
AEF
  8
LAYER_1
 62
   250
 10
-22.0516
 20
100.8499
 30
0.0
  0
VERTEX
  5
AF0
  8
LAYER_1
 62
   250
 10
-22.0907
 20
100.9081
 30
0.0
  0
VERTEX
  5
AF1
  8
LAYER_1
 62
   250
 10
-22.1623
 20
100.9786
 30
0.0
  0
VERTEX
  5
AF2
  8
LAYER_1
 62
   250
 10
-22.2438
 20
101.0291
 30
0.0
  0
VERTEX
  5
AF3
  8
LAYER_1
 62
   250
 10
-22.3351
 20
101.0594
 30
0.0
  0
VERTEX
  5
AF4
  8
LAYER_1
 62
   250
 10
-22.4362
 20
101.0695
 30
0.0
  0
VERTEX
  5
AF5
  8
LAYER_1
 62
   250
 10
-22.5285
 20
101.0615
 30
0.0
  0
VERTEX
  5
AF6
  8
LAYER_1
 62
   250
 10
-22.6132
 20
101.0373
 30
0.0
  0
VERTEX
  5
AF7
  8
LAYER_1
 62
   250
 10
-22.6902
 20
100.9971
 30
0.0
  0
VERTEX
  5
AF8
  8
LAYER_1
 62
   250
 10
-22.7595
 20
100.9409
 30
0.0
  0
VERTEX
  5
AF9
  8
LAYER_1
 62
   250
 10
-22.8177
 20
100.8711
 30
0.0
  0
VERTEX
  5
AFA
  8
LAYER_1
 62
   250
 10
-22.8612
 20
100.7905
 30
0.0
  0
VERTEX
  5
AFB
  8
LAYER_1
 62
   250
 10
-22.8901
 20
100.6991
 30
0.0
  0
VERTEX
  5
AFC
  8
LAYER_1
 62
   250
 10
-22.9045
 20
100.5969
 30
0.0
  0
SEQEND
  5
AFD
  8
LAYER_1
 62
   250
  0
POLYLINE
  5
74
  8
LAYER_1
 62
   250
 66
     1
 10
0.0
 20
0.0
 30
0.0
 70
     1
  0
VERTEX
  5
AFE
  8
LAYER_1
 62
   250
 10
-21.2387
 20
99.6153
 30
0.0
  0
VERTEX
  5
AFF
  8
LAYER_1
 62
   250
 10
-21.2387
 20
99.9333
 30
0.0
  0
VERTEX
  5
B00
  8
LAYER_1
 62
   250
 10
-20.9207
 20
99.9333
 30
0.0
  0
VERTEX
  5
B01
  8
LAYER_1
 62
   250
 10
-20.9207
 20
99.6153
 30
0.0
  0
VERTEX
  5
B02
  8
LAYER_1
 62
   250
 10
-21.2387
 20
99.6153
 30
0.0
  0
SEQEND
  5
B03
  8
LAYER_1
 62
   250
  0
POLYLINE
  5
75
  8
LAYER_1
 62
   250
 66
     1
 10
0.0
 20
0.0
 30
0.0
 70
     1
  0
VERTEX
  5
B04
  8
LAYER_1
 62
   250
 10
-20.1465
 20
99.6153
 30
0.0
  0
VERTEX
  5
B05
  8
LAYER_1
 62
   250
 10
-20.4052
 20
99.6153
 30
0.0
  0
VERTEX
  5
B06
  8
LAYER_1
 62
   250
 10
-20.4052
 20
101.8881
 30
0.0
  0
VERTEX
  5
B07
  8
LAYER_1
 62
   250
 10
-20.1264
 20
101.8881
 30
0.0
  0
VERTEX
  5
B08
  8
LAYER_1
 62
   250
 10
-20.1264
 20
101.0774
 30
0.0
  0
VERTEX
  5
B09
  8
LAYER_1
 62
   250
 10
-20.0318
 20
101.1743
 30
0.0
  0
VERTEX
  5
B0A
  8
LAYER_1
 62
   250
 10
-19.9252
 20
101.2436
 30
0.0
  0
VERTEX
  5
B0B
  8
LAYER_1
 62
   250
 10
-19.8064
 20
101.2852
 30
0.0
  0
VERTEX
  5
B0C
  8
LAYER_1
 62
   250
 10
-19.6755
 20
101.2991
 30
0.0
  0
VERTEX
  5
B0D
  8
LAYER_1
 62
   250
 10
-19.5274
 20
101.2837
 30
0.0
  0
VERTEX
  5
B0E
  8
LAYER_1
 62
   250
 10
-19.3876
 20
101.2377
 30
0.0
  0
VERTEX
  5
B0F
  8
LAYER_1
 62
   250
 10
-19.2641
 20
101.164
 30
0.0
  0
VERTEX
  5
B10
  8
LAYER_1
 62
   250
 10
-19.1643
 20
101.0657
 30
0.0
  0
VERTEX
  5
B11
  8
LAYER_1
 62
   250
 10
-19.0273
 20
100.798
 30
0.0
  0
VERTEX
  5
B12
  8
LAYER_1
 62
   250
 10
-18.9775
 20
100.4636
 30
0.0
  0
VERTEX
  5
B13
  8
LAYER_1
 62
   250
 10
-18.9906
 20
100.2638
 30
0.0
  0
VERTEX
  5
B14
  8
LAYER_1
 62
   250
 10
-19.0299
 20
100.0881
 30
0.0
  0
VERTEX
  5
B15
  8
LAYER_1
 62
   250
 10
-19.0954
 20
99.9365
 30
0.0
  0
VERTEX
  5
B16
  8
LAYER_1
 62
   250
 10
-19.1871
 20
99.809
 30
0.0
  0
VERTEX
  5
B17
  8
LAYER_1
 62
   250
 10
-19.2968
 20
99.708
 30
0.0
  0
VERTEX
  5
B18
  8
LAYER_1
 62
   250
 10
-19.4172
 20
99.6359
 30
0.0
  0
VERTEX
  5
B19
  8
LAYER_1
 62
   250
 10
-19.548
 20
99.5927
 30
0.0
  0
VERTEX
  5
B1A
  8
LAYER_1
 62
   250
 10
-19.6893
 20
99.5783
 30
0.0
  0
VERTEX
  5
B1B
  8
LAYER_1
 62
   250
 10
-19.8271
 20
99.5935
 30
0.0
  0
VERTEX
  5
B1C
  8
LAYER_1
 62
   250
 10
-19.9493
 20
99.6391
 30
0.0
  0
VERTEX
  5
B1D
  8
LAYER_1
 62
   250
 10
-20.0557
 20
99.7151
 30
0.0
  0
VERTEX
  5
B1E
  8
LAYER_1
 62
   250
 10
-20.1465
 20
99.8217
 30
0.0
  0
VERTEX
  5
B1F
  8
LAYER_1
 62
   250
 10
-20.1465
 20
99.6153
 30
0.0
  0
SEQEND
  5
B20
  8
LAYER_1
 62
   250
  0
POLYLINE
  5
76
  8
LAYER_1
 62
   250
 66
     1
 10
0.0
 20
0.0
 30
0.0
 70
     1
  0
VERTEX
  5
B21
  8
LAYER_1
 62
   250
 10
-20.1496
 20
100.4509
 30
0.0
  0
VERTEX
  5
B22
  8
LAYER_1
 62
   250
 10
-20.1446
 20
100.3132
 30
0.0
  0
VERTEX
  5
B23
  8
LAYER_1
 62
   250
 10
-20.1295
 20
100.196
 30
0.0
  0
VERTEX
  5
B24
  8
LAYER_1
 62
   250
 10
-20.1043
 20
100.0994
 30
0.0
  0
VERTEX
  5
B25
  8
LAYER_1
 62
   250
 10
-20.0692
 20
100.0233
 30
0.0
  0
VERTEX
  5
B26
  8
LAYER_1
 62
   250
 10
-19.9975
 20
99.9289
 30
0.0
  0
VERTEX
  5
B27
  8
LAYER_1
 62
   250
 10
-19.9141
 20
99.8614
 30
0.0
  0
VERTEX
  5
B28
  8
LAYER_1
 62
   250
 10
-19.8191
 20
99.8209
 30
0.0
  0
VERTEX
  5
B29
  8
LAYER_1
 62
   250
 10
-19.7126
 20
99.8074
 30
0.0
  0
VERTEX
  5
B2A
  8
LAYER_1
 62
   250
 10
-19.6241
 20
99.8173
 30
0.0
  0
VERTEX
  5
B2B
  8
LAYER_1
 62
   250
 10
-19.5418
 20
99.8472
 30
0.0
  0
VERTEX
  5
B2C
  8
LAYER_1
 62
   250
 10
-19.4659
 20
99.8969
 30
0.0
  0
VERTEX
  5
B2D
  8
LAYER_1
 62
   250
 10
-19.3961
 20
99.9667
 30
0.0
  0
VERTEX
  5
B2E
  8
LAYER_1
 62
   250
 10
-19.3378
 20
100.0558
 30
0.0
  0
VERTEX
  5
B2F
  8
LAYER_1
 62
   250
 10
-19.2961
 20
100.1644
 30
0.0
  0
VERTEX
  5
B30
  8
LAYER_1
 62
   250
 10
-19.2711
 20
100.2925
 30
0.0
  0
VERTEX
  5
B31
  8
LAYER_1
 62
   250
 10
-19.2628
 20
100.4403
 30
0.0
  0
VERTEX
  5
B32
  8
LAYER_1
 62
   250
 10
-19.2708
 20
100.5909
 30
0.0
  0
VERTEX
  5
B33
  8
LAYER_1
 62
   250
 10
-19.2949
 20
100.7204
 30
0.0
  0
VERTEX
  5
B34
  8
LAYER_1
 62
   250
 10
-19.3349
 20
100.8288
 30
0.0
  0
VERTEX
  5
B35
  8
LAYER_1
 62
   250
 10
-19.3908
 20
100.916
 30
0.0
  0
VERTEX
  5
B36
  8
LAYER_1
 62
   250
 10
-19.4581
 20
100.9831
 30
0.0
  0
VERTEX
  5
B37
  8
LAYER_1
 62
   250
 10
-19.532
 20
101.031
 30
0.0
  0
VERTEX
  5
B38
  8
LAYER_1
 62
   250
 10
-19.6127
 20
101.0599
 30
0.0
  0
VERTEX
  5
B39
  8
LAYER_1
 62
   250
 10
-19.6999
 20
101.0695
 30
0.0
  0
VERTEX
  5
B3A
  8
LAYER_1
 62
   250
 10
-19.7884
 20
101.0596
 30
0.0
  0
VERTEX
  5
B3B
  8
LAYER_1
 62
   250
 10
-19.8706
 20
101.0298
 30
0.0
  0
VERTEX
  5
B3C
  8
LAYER_1
 62
   250
 10
-19.9465
 20
100.9801
 30
0.0
  0
VERTEX
  5
B3D
  8
LAYER_1
 62
   250
 10
-20.0163
 20
100.9107
 30
0.0
  0
VERTEX
  5
B3E
  8
LAYER_1
 62
   250
 10
-20.0746
 20
100.8224
 30
0.0
  0
VERTEX
  5
B3F
  8
LAYER_1
 62
   250
 10
-20.1163
 20
100.7163
 30
0.0
  0
VERTEX
  5
B40
  8
LAYER_1
 62
   250
 10
-20.1413
 20
100.5925
 30
0.0
  0
VERTEX
  5
B41
  8
LAYER_1
 62
   250
 10
-20.1496
 20
100.4509
 30
0.0
  0
SEQEND
  5
B42
  8
LAYER_1
 62
   250
  0
POLYLINE
  5
77
  8
LAYER_1
 62
   250
 66
     1
 10
0.0
 20
0.0
 30
0.0
 70
     1
  0
VERTEX
  5
B43
  8
LAYER_1
 62
   250
 10
-18.6124
 20
99.6153
 30
0.0
  0
VERTEX
  5
B44
  8
LAYER_1
 62
   250
 10
-18.6124
 20
101.8881
 30
0.0
  0
VERTEX
  5
B45
  8
LAYER_1
 62
   250
 10
-18.3335
 20
101.8881
 30
0.0
  0
VERTEX
  5
B46
  8
LAYER_1
 62
   250
 10
-18.3335
 20
99.6153
 30
0.0
  0
VERTEX
  5
B47
  8
LAYER_1
 62
   250
 10
-18.6124
 20
99.6153
 30
0.0
  0
SEQEND
  5
B48
  8
LAYER_1
 62
   250
  0
POLYLINE
  5
78
  8
LAYER_1
 62
   250
 66
     1
 10
0.0
 20
0.0
 30
0.0
 70
     1
  0
VERTEX
  5
B49
  8
LAYER_1
 62
   250
 10
-17.9731
 20
100.4387
 30
0.0
  0
VERTEX
  5
B4A
  8
LAYER_1
 62
   250
 10
-17.9572
 20
100.6525
 30
0.0
  0
VERTEX
  5
B4B
  8
LAYER_1
 62
   250
 10
-17.9095
 20
100.8367
 30
0.0
  0
VERTEX
  5
B4C
  8
LAYER_1
 62
   250
 10
-17.8737
 20
100.9176
 30
0.0
  0
VERTEX
  5
B4D
  8
LAYER_1
 62
   250
 10
-17.83
 20
100.9912
 30
0.0
  0
VERTEX
  5
B4E
  8
LAYER_1
 62
   250
 10
-17.7783
 20
101.0573
 30
0.0
  0
VERTEX
  5
B4F
  8
LAYER_1
 62
   250
 10
-17.7186
 20
101.116
 30
0.0
  0
VERTEX
  5
B50
  8
LAYER_1
 62
   250
 10
-17.6068
 20
101.196
 30
0.0
  0
VERTEX
  5
B51
  8
LAYER_1
 62
   250
 10
-17.4832
 20
101.2532
 30
0.0
  0
VERTEX
  5
B52
  8
LAYER_1
 62
   250
 10
-17.348
 20
101.2876
 30
0.0
  0
VERTEX
  5
B53
  8
LAYER_1
 62
   250
 10
-17.201
 20
101.2991
 30
0.0
  0
VERTEX
  5
B54
  8
LAYER_1
 62
   250
 10
-17.0389
 20
101.2852
 30
0.0
  0
VERTEX
  5
B55
  8
LAYER_1
 62
   250
 10
-16.8923
 20
101.2435
 30
0.0
  0
VERTEX
  5
B56
  8
LAYER_1
 62
   250
 10
-16.7613
 20
101.1738
 30
0.0
  0
VERTEX
  5
B57
  8
LAYER_1
 62
   250
 10
-16.6459
 20
101.0763
 30
0.0
  0
VERTEX
  5
B58
  8
LAYER_1
 62
   250
 10
-16.5516
 20
100.9546
 30
0.0
  0
VERTEX
  5
B59
  8
LAYER_1
 62
   250
 10
-16.4843
 20
100.8116
 30
0.0
  0
VERTEX
  5
B5A
  8
LAYER_1
 62
   250
 10
-16.444
 20
100.6474
 30
0.0
  0
VERTEX
  5
B5B
  8
LAYER_1
 62
   250
 10
-16.4306
 20
100.462
 30
0.0
  0
VERTEX
  5
B5C
  8
LAYER_1
 62
   250
 10
-16.4365
 20
100.3114
 30
0.0
  0
VERTEX
  5
B5D
  8
LAYER_1
 62
   250
 10
-16.4544
 20
100.1778
 30
0.0
  0
VERTEX
  5
B5E
  8
LAYER_1
 62
   250
 10
-16.4841
 20
100.0613
 30
0.0
  0
VERTEX
  5
B5F
  8
LAYER_1
 62
   250
 10
-16.5258
 20
99.9619
 30
0.0
  0
VERTEX
  5
B60
  8
LAYER_1
 62
   250
 10
-16.5789
 20
99.8758
 30
0.0
  0
VERTEX
  5
B61
  8
LAYER_1
 62
   250
 10
-16.6428
 20
99.7999
 30
0.0
  0
VERTEX
  5
B62
  8
LAYER_1
 62
   250
 10
-16.7176
 20
99.7343
 30
0.0
  0
VERTEX
  5
B63
  8
LAYER_1
 62
   250
 10
-16.8031
 20
99.6788
 30
0.0
  0
VERTEX
  5
B64
  8
LAYER_1
 62
   250
 10
-16.8964
 20
99.6347
 30
0.0
  0
VERTEX
  5
B65
  8
LAYER_1
 62
   250
 10
-16.9937
 20
99.6034
 30
0.0
  0
VERTEX
  5
B66
  8
LAYER_1
 62
   250
 10
-17.0952
 20
99.5846
 30
0.0
  0
VERTEX
  5
B67
  8
LAYER_1
 62
   250
 10
-17.201
 20
99.5783
 30
0.0
  0
VERTEX
  5
B68
  8
LAYER_1
 62
   250
 10
-17.3654
 20
99.5921
 30
0.0
  0
VERTEX
  5
B69
  8
LAYER_1
 62
   250
 10
-17.5134
 20
99.6336
 30
0.0
  0
VERTEX
  5
B6A
  8
LAYER_1
 62
   250
 10
-17.6448
 20
99.7028
 30
0.0
  0
VERTEX
  5
B6B
  8
LAYER_1
 62
   250
 10
-17.7598
 20
99.8
 30
0.0
  0
VERTEX
  5
B6C
  8
LAYER_1
 62
   250
 10
-17.8532
 20
99.9229
 30
0.0
  0
VERTEX
  5
B6D
  8
LAYER_1
 62
   250
 10
-17.9199
 20
100.0703
 30
0.0
  0
VERTEX
  5
B6E
  8
LAYER_1
 62
   250
 10
-17.9598
 20
100.2422
 30
0.0
  0
VERTEX
  5
B6F
  8
LAYER_1
 62
   250
 10
-17.9731
 20
100.4387
 30
0.0
  0
SEQEND
  5
B70
  8
LAYER_1
 62
   250
  0
POLYLINE
  5
79
  8
LAYER_1
 62
   250
 66
     1
 10
0.0
 20
0.0
 30
0.0
 70
     1
  0
VERTEX
  5
B71
  8
LAYER_1
 62
   250
 10
-17.6863
 20
100.4387
 30
0.0
  0
VERTEX
  5
B72
  8
LAYER_1
 62
   250
 10
-17.6777
 20
100.2903
 30
0.0
  0
VERTEX
  5
B73
  8
LAYER_1
 62
   250
 10
-17.6518
 20
100.162
 30
0.0
  0
VERTEX
  5
B74
  8
LAYER_1
 62
   250
 10
-17.6086
 20
100.0536
 30
0.0
  0
VERTEX
  5
B75
  8
LAYER_1
 62
   250
 10
-17.5482
 20
99.9651
 30
0.0
  0
VERTEX
  5
B76
  8
LAYER_1
 62
   250
 10
-17.4747
 20
99.896
 30
0.0
  0
VERTEX
  5
B77
  8
LAYER_1
 62
   250
 10
-17.3923
 20
99.8468
 30
0.0
  0
VERTEX
  5
B78
  8
LAYER_1
 62
   250
 10
-17.301
 20
99.8172
 30
0.0
  0
VERTEX
  5
B79
  8
LAYER_1
 62
   250
 10
-17.201
 20
99.8074
 30
0.0
  0
VERTEX
  5
B7A
  8
LAYER_1
 62
   250
 10
-17.1014
 20
99.8173
 30
0.0
  0
VERTEX
  5
B7B
  8
LAYER_1
 62
   250
 10
-17.0105
 20
99.847
 30
0.0
  0
VERTEX
  5
B7C
  8
LAYER_1
 62
   250
 10
-16.9284
 20
99.8965
 30
0.0
  0
VERTEX
  5
B7D
  8
LAYER_1
 62
   250
 10
-16.855
 20
99.9656
 30
0.0
  0
VERTEX
  5
B7E
  8
LAYER_1
 62
   250
 10
-16.7949
 20
100.055
 30
0.0
  0
VERTEX
  5
B7F
  8
LAYER_1
 62
   250
 10
-16.7519
 20
100.1652
 30
0.0
  0
VERTEX
  5
B80
  8
LAYER_1
 62
   250
 10
-16.726
 20
100.2961
 30
0.0
  0
VERTEX
  5
B81
  8
LAYER_1
 62
   250
 10
-16.7174
 20
100.4477
 30
0.0
  0
VERTEX
  5
B82
  8
LAYER_1
 62
   250
 10
-16.726
 20
100.5912
 30
0.0
  0
VERTEX
  5
B83
  8
LAYER_1
 62
   250
 10
-16.752
 20
100.7163
 30
0.0
  0
VERTEX
  5
B84
  8
LAYER_1
 62
   250
 10
-16.7953
 20
100.8228
 30
0.0
  0
VERTEX
  5
B85
  8
LAYER_1
 62
   250
 10
-16.856
 20
100.9107
 30
0.0
  0
VERTEX
  5
B86
  8
LAYER_1
 62
   250
 10
-16.9296
 20
100.9795
 30
0.0
  0
VERTEX
  5
B87
  8
LAYER_1
 62
   250
 10
-17.0117
 20
101.0286
 30
0.0
  0
VERTEX
  5
B88
  8
LAYER_1
 62
   250
 10
-17.1021
 20
101.0581
 30
0.0
  0
VERTEX
  5
B89
  8
LAYER_1
 62
   250
 10
-17.201
 20
101.0679
 30
0.0
  0
VERTEX
  5
B8A
  8
LAYER_1
 62
   250
 10
-17.301
 20
101.0581
 30
0.0
  0
VERTEX
  5
B8B
  8
LAYER_1
 62
   250
 10
-17.3923
 20
101.0287
 30
0.0
  0
VERTEX
  5
B8C
  8
LAYER_1
 62
   250
 10
-17.4747
 20
100.9797
 30
0.0
  0
VERTEX
  5
B8D
  8
LAYER_1
 62
   250
 10
-17.5482
 20
100.9112
 30
0.0
  0
VERTEX
  5
B8E
  8
LAYER_1
 62
   250
 10
-17.6086
 20
100.823
 30
0.0
  0
VERTEX
  5
B8F
  8
LAYER_1
 62
   250
 10
-17.6518
 20
100.7149
 30
0.0
  0
VERTEX
  5
B90
  8
LAYER_1
 62
   250
 10
-17.6777
 20
100.5867
 30
0.0
  0
VERTEX
  5
B91
  8
LAYER_1
 62
   250
 10
-17.6863
 20
100.4387
 30
0.0
  0
SEQEND
  5
B92
  8
LAYER_1
 62
   250
  0
POLYLINE
  5
7A
  8
LAYER_1
 62
   250
 66
     1
 10
0.0
 20
0.0
 30
0.0
 70
     1
  0
VERTEX
  5
B93
  8
LAYER_1
 62
   250
 10
-16.1226
 20
99.4788
 30
0.0
  0
VERTEX
  5
B94
  8
LAYER_1
 62
   250
 10
-15.8511
 20
99.4386
 30
0.0
  0
VERTEX
  5
B95
  8
LAYER_1
 62
   250
 10
-15.8389
 20
99.3801
 30
0.0
  0
VERTEX
  5
B96
  8
LAYER_1
 62
   250
 10
-15.8191
 20
99.3301
 30
0.0
  0
VERTEX
  5
B97
  8
LAYER_1
 62
   250
 10
-15.7917
 20
99.2886
 30
0.0
  0
VERTEX
  5
B98
  8
LAYER_1
 62
   250
 10
-15.7569
 20
99.2555
 30
0.0
  0
VERTEX
  5
B99
  8
LAYER_1
 62
   250
 10
-15.7002
 20
99.2217
 30
0.0
  0
VERTEX
  5
B9A
  8
LAYER_1
 62
   250
 10
-15.634
 20
99.1976
 30
0.0
  0
VERTEX
  5
B9B
  8
LAYER_1
 62
   250
 10
-15.5583
 20
99.1831
 30
0.0
  0
VERTEX
  5
B9C
  8
LAYER_1
 62
   250
 10
-15.4733
 20
99.1782
 30
0.0
  0
VERTEX
  5
B9D
  8
LAYER_1
 62
   250
 10
-15.3817
 20
99.1831
 30
0.0
  0
VERTEX
  5
B9E
  8
LAYER_1
 62
   250
 10
-15.3013
 20
99.1976
 30
0.0
  0
VERTEX
  5
B9F
  8
LAYER_1
 62
   250
 10
-15.2321
 20
99.2217
 30
0.0
  0
VERTEX
  5
BA0
  8
LAYER_1
 62
   250
 10
-15.1738
 20
99.2555
 30
0.0
  0
VERTEX
  5
BA1
  8
LAYER_1
 62
   250
 10
-15.1254
 20
99.2982
 30
0.0
  0
VERTEX
  5
BA2
  8
LAYER_1
 62
   250
 10
-15.0855
 20
99.3487
 30
0.0
  0
VERTEX
  5
BA3
  8
LAYER_1
 62
   250
 10
-15.0543
 20
99.4067
 30
0.0
  0
VERTEX
  5
BA4
  8
LAYER_1
 62
   250
 10
-15.0314
 20
99.4724
 30
0.0
  0
VERTEX
  5
BA5
  8
LAYER_1
 62
   250
 10
-15.0113
 20
99.8307
 30
0.0
  0
VERTEX
  5
BA6
  8
LAYER_1
 62
   250
 10
-15.1082
 20
99.7365
 30
0.0
  0
VERTEX
  5
BA7
  8
LAYER_1
 62
   250
 10
-15.2165
 20
99.6692
 30
0.0
  0
VERTEX
  5
BA8
  8
LAYER_1
 62
   250
 10
-15.336
 20
99.6288
 30
0.0
  0
VERTEX
  5
BA9
  8
LAYER_1
 62
   250
 10
-15.4669
 20
99.6153
 30
0.0
  0
VERTEX
  5
BAA
  8
LAYER_1
 62
   250
 10
-15.6272
 20
99.6306
 30
0.0
  0
VERTEX
  5
BAB
  8
LAYER_1
 62
   250
 10
-15.7682
 20
99.6765
 30
0.0
  0
VERTEX
  5
BAC
  8
LAYER_1
 62
   250
 10
-15.8899
 20
99.753
 30
0.0
  0
VERTEX
  5
BAD
  8
LAYER_1
 62
   250
 10
-15.9924
 20
99.8603
 30
0.0
  0
VERTEX
  5
BAE
  8
LAYER_1
 62
   250
 10
-16.0737
 20
99.9888
 30
0.0
  0
VERTEX
  5
BAF
  8
LAYER_1
 62
   250
 10
-16.132
 20
100.1296
 30
0.0
  0
VERTEX
  5
BB0
  8
LAYER_1
 62
   250
 10
-16.167
 20
100.2826
 30
0.0
  0
VERTEX
  5
BB1
  8
LAYER_1
 62
   250
 10
-16.1787
 20
100.4477
 30
0.0
  0
VERTEX
  5
BB2
  8
LAYER_1
 62
   250
 10
-16.1733
 20
100.5633
 30
0.0
  0
VERTEX
  5
BB3
  8
LAYER_1
 62
   250
 10
-16.1573
 20
100.6743
 30
0.0
  0
VERTEX
  5
BB4
  8
LAYER_1
 62
   250
 10
-16.1307
 20
100.7808
 30
0.0
  0
VERTEX
  5
BB5
  8
LAYER_1
 62
   250
 10
-16.0935
 20
100.8827
 30
0.0
  0
VERTEX
  5
BB6
  8
LAYER_1
 62
   250
 10
-16.0459
 20
100.9766
 30
0.0
  0
VERTEX
  5
BB7
  8
LAYER_1
 62
   250
 10
-15.9887
 20
101.0593
 30
0.0
  0
VERTEX
  5
BB8
  8
LAYER_1
 62
   250
 10
-15.922
 20
101.1306
 30
0.0
  0
VERTEX
  5
BB9
  8
LAYER_1
 62
   250
 10
-15.8458
 20
101.1906
 30
0.0
  0
VERTEX
  5
BBA
  8
LAYER_1
 62
   250
 10
-15.7613
 20
101.2379
 30
0.0
  0
VERTEX
  5
BBB
  8
LAYER_1
 62
   250
 10
-15.6697
 20
101.2719
 30
0.0
  0
VERTEX
  5
BBC
  8
LAYER_1
 62
   250
 10
-15.571
 20
101.2923
 30
0.0
  0
VERTEX
  5
BBD
  8
LAYER_1
 62
   250
 10
-15.4654
 20
101.2991
 30
0.0
  0
VERTEX
  5
BBE
  8
LAYER_1
 62
   250
 10
-15.3261
 20
101.2843
 30
0.0
  0
VERTEX
  5
BBF
  8
LAYER_1
 62
   250
 10
-15.1995
 20
101.2401
 30
0.0
  0
VERTEX
  5
BC0
  8
LAYER_1
 62
   250
 10
-15.0858
 20
101.1663
 30
0.0
  0
VERTEX
  5
BC1
  8
LAYER_1
 62
   250
 10
-14.9849
 20
101.0631
 30
0.0
  0
VERTEX
  5
BC2
  8
LAYER_1
 62
   250
 10
-14.9849
 20
101.2615
 30
0.0
  0
VERTEX
  5
BC3
  8
LAYER_1
 62
   250
 10
-14.7272
 20
101.2615
 30
0.0
  0
VERTEX
  5
BC4
  8
LAYER_1
 62
   250
 10
-14.7272
 20
99.8386
 30
0.0
  0
VERTEX
  5
BC5
  8
LAYER_1
 62
   250
 10
-14.7321
 20
99.6604
 30
0.0
  0
VERTEX
  5
BC6
  8
LAYER_1
 62
   250
 10
-14.7469
 20
99.5102
 30
0.0
  0
VERTEX
  5
BC7
  8
LAYER_1
 62
   250
 10
-14.7714
 20
99.3878
 30
0.0
  0
VERTEX
  5
BC8
  8
LAYER_1
 62
   250
 10
-14.8055
 20
99.2936
 30
0.0
  0
VERTEX
  5
BC9
  8
LAYER_1
 62
   250
 10
-14.8505
 20
99.2176
 30
0.0
  0
VERTEX
  5
BCA
  8
LAYER_1
 62
   250
 10
-14.9068
 20
99.15
 30
0.0
  0
VERTEX
  5
BCB
  8
LAYER_1
 62
   250
 10
-14.9745
 20
99.0908
 30
0.0
  0
VERTEX
  5
BCC
  8
LAYER_1
 62
   250
 10
-15.0537
 20
99.0401
 30
0.0
  0
VERTEX
  5
BCD
  8
LAYER_1
 62
   250
 10
-15.1435
 20
98.9994
 30
0.0
  0
VERTEX
  5
BCE
  8
LAYER_1
 62
   250
 10
-15.2431
 20
98.9703
 30
0.0
  0
VERTEX
  5
BCF
  8
LAYER_1
 62
   250
 10
-15.3524
 20
98.9528
 30
0.0
  0
VERTEX
  5
BD0
  8
LAYER_1
 62
   250
 10
-15.4717
 20
98.947
 30
0.0
  0
VERTEX
  5
BD1
  8
LAYER_1
 62
   250
 10
-15.6119
 20
98.9553
 30
0.0
  0
VERTEX
  5
BD2
  8
LAYER_1
 62
   250
 10
-15.7379
 20
98.9803
 30
0.0
  0
VERTEX
  5
BD3
  8
LAYER_1
 62
   250
 10
-15.8498
 20
99.0218
 30
0.0
  0
VERTEX
  5
BD4
  8
LAYER_1
 62
   250
 10
-15.9474
 20
99.0798
 30
0.0
  0
VERTEX
  5
BD5
  8
LAYER_1
 62
   250
 10
-16.0265
 20
99.1544
 30
0.0
  0
VERTEX
  5
BD6
  8
LAYER_1
 62
   250
 10
-16.082
 20
99.2458
 30
0.0
  0
VERTEX
  5
BD7
  8
LAYER_1
 62
   250
 10
-16.114
 20
99.3539
 30
0.0
  0
VERTEX
  5
BD8
  8
LAYER_1
 62
   250
 10
-16.1226
 20
99.4788
 30
0.0
  0
SEQEND
  5
BD9
  8
LAYER_1
 62
   250
  0
POLYLINE
  5
7B
  8
LAYER_1
 62
   250
 66
     1
 10
0.0
 20
0.0
 30
0.0
 70
     1
  0
VERTEX
  5
BDA
  8
LAYER_1
 62
   250
 10
-15.8919
 20
100.4678
 30
0.0
  0
VERTEX
  5
BDB
  8
LAYER_1
 62
   250
 10
-15.8838
 20
100.3168
 30
0.0
  0
VERTEX
  5
BDC
  8
LAYER_1
 62
   250
 10
-15.8597
 20
100.1877
 30
0.0
  0
VERTEX
  5
BDD
  8
LAYER_1
 62
   250
 10
-15.8193
 20
100.0804
 30
0.0
  0
VERTEX
  5
BDE
  8
LAYER_1
 62
   250
 10
-15.7627
 20
99.9952
 30
0.0
  0
VERTEX
  5
BDF
  8
LAYER_1
 62
   250
 10
-15.6944
 20
99.93
 30
0.0
  0
VERTEX
  5
BE0
  8
LAYER_1
 62
   250
 10
-15.6179
 20
99.8836
 30
0.0
  0
VERTEX
  5
BE1
  8
LAYER_1
 62
   250
 10
-15.5333
 20
99.8558
 30
0.0
  0
VERTEX
  5
BE2
  8
LAYER_1
 62
   250
 10
-15.4405
 20
99.8465
 30
0.0
  0
VERTEX
  5
BE3
  8
LAYER_1
 62
   250
 10
-15.3483
 20
99.8557
 30
0.0
  0
VERTEX
  5
BE4
  8
LAYER_1
 62
   250
 10
-15.2639
 20
99.8835
 30
0.0
  0
VERTEX
  5
BE5
  8
LAYER_1
 62
   250
 10
-15.1872
 20
99.9296
 30
0.0
  0
VERTEX
  5
BE6
  8
LAYER_1
 62
   250
 10
-15.1182
 20
99.9942
 30
0.0
  0
VERTEX
  5
BE7
  8
LAYER_1
 62
   250
 10
-15.0612
 20
100.0788
 30
0.0
  0
VERTEX
  5
BE8
  8
LAYER_1
 62
   250
 10
-15.0206
 20
100.1844
 30
0.0
  0
VERTEX
  5
BE9
  8
LAYER_1
 62
   250
 10
-14.9961
 20
100.3111
 30
0.0
  0
VERTEX
  5
BEA
  8
LAYER_1
 62
   250
 10
-14.988
 20
100.4588
 30
0.0
  0
VERTEX
  5
BEB
  8
LAYER_1
 62
   250
 10
-14.9964
 20
100.6007
 30
0.0
  0
VERTEX
  5
BEC
  8
LAYER_1
 62
   250
 10
-15.0214
 20
100.7239
 30
0.0
  0
VERTEX
  5
BED
  8
LAYER_1
 62
   250
 10
-15.0633
 20
100.8285
 30
0.0
  0
VERTEX
  5
BEE
  8
LAYER_1
 62
   250
 10
-15.1219
 20
100.9144
 30
0.0
  0
VERTEX
  5
BEF
  8
LAYER_1
 62
   250
 10
-15.1925
 20
100.9815
 30
0.0
  0
VERTEX
  5
BF0
  8
LAYER_1
 62
   250
 10
-15.2699
 20
101.0294
 30
0.0
  0
VERTEX
  5
BF1
  8
LAYER_1
 62
   250
 10
-15.3542
 20
101.0583
 30
0.0
  0
VERTEX
  5
BF2
  8
LAYER_1
 62
   250
 10
-15.4452
 20
101.0679
 30
0.0
  0
VERTEX
  5
BF3
  8
LAYER_1
 62
   250
 10
-15.5346
 20
101.0585
 30
0.0
  0
VERTEX
  5
BF4
  8
LAYER_1
 62
   250
 10
-15.6172
 20
101.0301
 30
0.0
  0
VERTEX
  5
BF5
  8
LAYER_1
 62
   250
 10
-15.6928
 20
100.9828
 30
0.0
  0
VERTEX
  5
BF6
  8
LAYER_1
 62
   250
 10
-15.7617
 20
100.9165
 30
0.0
  0
VERTEX
  5
BF7
  8
LAYER_1
 62
   250
 10
-15.8187
 20
100.8319
 30
0.0
  0
VERTEX
  5
BF8
  8
LAYER_1
 62
   250
 10
-15.8594
 20
100.7289
 30
0.0
  0
VERTEX
  5
BF9
  8
LAYER_1
 62
   250
 10
-15.8838
 20
100.6075
 30
0.0
  0
VERTEX
  5
BFA
  8
LAYER_1
 62
   250
 10
-15.8919
 20
100.4678
 30
0.0
  0
SEQEND
  5
BFB
  8
LAYER_1
 62
   250
  0
POLYLINE
  5
7C
  8
LAYER_1
 62
   250
 66
     1
 10
0.0
 20
0.0
 30
0.0
 70
     1
  0
VERTEX
  5
BFC
  8
LAYER_1
 62
   250
 10
-14.3853
 20
100.1069
 30
0.0
  0
VERTEX
  5
BFD
  8
LAYER_1
 62
   250
 10
-14.1096
 20
100.1503
 30
0.0
  0
VERTEX
  5
BFE
  8
LAYER_1
 62
   250
 10
-14.0929
 20
100.0722
 30
0.0
  0
VERTEX
  5
BFF
  8
LAYER_1
 62
   250
 10
-14.0657
 20
100.0038
 30
0.0
  0
VERTEX
  5
C00
  8
LAYER_1
 62
   250
 10
-14.028
 20
99.945
 30
0.0
  0
VERTEX
  5
C01
  8
LAYER_1
 62
   250
 10
-13.98
 20
99.8958
 30
0.0
  0
VERTEX
  5
C02
  8
LAYER_1
 62
   250
 10
-13.9218
 20
99.8572
 30
0.0
  0
VERTEX
  5
C03
  8
LAYER_1
 62
   250
 10
-13.853
 20
99.8296
 30
0.0
  0
VERTEX
  5
C04
  8
LAYER_1
 62
   250
 10
-13.7734
 20
99.8129
 30
0.0
  0
VERTEX
  5
C05
  8
LAYER_1
 62
   250
 10
-13.6831
 20
99.8074
 30
0.0
  0
VERTEX
  5
C06
  8
LAYER_1
 62
   250
 10
-13.5932
 20
99.8123
 30
0.0
  0
VERTEX
  5
C07
  8
LAYER_1
 62
   250
 10
-13.5157
 20
99.8271
 30
0.0
  0
VERTEX
  5
C08
  8
LAYER_1
 62
   250
 10
-13.4506
 20
99.8516
 30
0.0
  0
VERTEX
  5
C09
  8
LAYER_1
 62
   250
 10
-13.3979
 20
99.8857
 30
0.0
  0
VERTEX
  5
C0A
  8
LAYER_1
 62
   250
 10
-13.3572
 20
99.9267
 30
0.0
  0
VERTEX
  5
C0B
  8
LAYER_1
 62
   250
 10
-13.3281
 20
99.971
 30
0.0
  0
VERTEX
  5
C0C
  8
LAYER_1
 62
   250
 10
-13.3106
 20
100.0185
 30
0.0
  0
VERTEX
  5
C0D
  8
LAYER_1
 62
   250
 10
-13.3047
 20
100.0693
 30
0.0
  0
VERTEX
  5
C0E
  8
LAYER_1
 62
   250
 10
-13.3099
 20
100.1143
 30
0.0
  0
VERTEX
  5
C0F
  8
LAYER_1
 62
   250
 10
-13.3254
 20
100.154
 30
0.0
  0
VERTEX
  5
C10
  8
LAYER_1
 62
   250
 10
-13.3512
 20
100.1888
 30
0.0
  0
VERTEX
  5
C11
  8
LAYER_1
 62
   250
 10
-13.3873
 20
100.2186
 30
0.0
  0
VERTEX
  5
C12
  8
LAYER_1
 62
   250
 10
-13.6725
 20
100.3127
 30
0.0
  0
VERTEX
  5
C13
  8
LAYER_1
 62
   250
 10
-14.098
 20
100.4472
 30
0.0
  0
VERTEX
  5
C14
  8
LAYER_1
 62
   250
 10
-14.2022
 20
100.5146
 30
0.0
  0
VERTEX
  5
C15
  8
LAYER_1
 62
   250
 10
-14.2779
 20
100.6038
 30
0.0
  0
VERTEX
  5
C16
  8
LAYER_1
 62
   250
 10
-14.3239
 20
100.709
 30
0.0
  0
VERTEX
  5
C17
  8
LAYER_1
 62
   250
 10
-14.3393
 20
100.8244
 30
0.0
  0
VERTEX
  5
C18
  8
LAYER_1
 62
   250
 10
-14.2885
 20
101.0282
 30
0.0
  0
VERTEX
  5
C19
  8
LAYER_1
 62
   250
 10
-14.1514
 20
101.1843
 30
0.0
  0
VERTEX
  5
C1A
  8
LAYER_1
 62
   250
 10
-13.9741
 20
101.2658
 30
0.0
  0
VERTEX
  5
C1B
  8
LAYER_1
 62
   250
 10
-13.7328
 20
101.2991
 30
0.0
  0
VERTEX
  5
C1C
  8
LAYER_1
 62
   250
 10
-13.551
 20
101.285
 30
0.0
  0
VERTEX
  5
C1D
  8
LAYER_1
 62
   250
 10
-13.3926
 20
101.243
 30
0.0
  0
VERTEX
  5
C1E
  8
LAYER_1
 62
   250
 10
-13.2651
 20
101.1775
 30
0.0
  0
VERTEX
  5
C1F
  8
LAYER_1
 62
   250
 10
-13.1762
 20
101.0922
 30
0.0
  0
VERTEX
  5
C20
  8
LAYER_1
 62
   250
 10
-13.1174
 20
100.9806
 30
0.0
  0
VERTEX
  5
C21
  8
LAYER_1
 62
   250
 10
-13.0804
 20
100.8371
 30
0.0
  0
VERTEX
  5
C22
  8
LAYER_1
 62
   250
 10
-13.3529
 20
100.7996
 30
0.0
  0
VERTEX
  5
C23
  8
LAYER_1
 62
   250
 10
-13.3668
 20
100.8596
 30
0.0
  0
VERTEX
  5
C24
  8
LAYER_1
 62
   250
 10
-13.3894
 20
100.9127
 30
0.0
  0
VERTEX
  5
C25
  8
LAYER_1
 62
   250
 10
-13.4208
 20
100.9588
 30
0.0
  0
VERTEX
  5
C26
  8
LAYER_1
 62
   250
 10
-13.4608
 20
100.998
 30
0.0
  0
VERTEX
  5
C27
  8
LAYER_1
 62
   250
 10
-13.5099
 20
101.0293
 30
0.0
  0
VERTEX
  5
C28
  8
LAYER_1
 62
   250
 10
-13.5683
 20
101.0516
 30
0.0
  0
VERTEX
  5
C29
  8
LAYER_1
 62
   250
 10
-13.6359
 20
101.065
 30
0.0
  0
VERTEX
  5
C2A
  8
LAYER_1
 62
   250
 10
-13.7127
 20
101.0695
 30
0.0
  0
VERTEX
  5
C2B
  8
LAYER_1
 62
   250
 10
-13.8019
 20
101.0655
 30
0.0
  0
VERTEX
  5
C2C
  8
LAYER_1
 62
   250
 10
-13.8774
 20
101.0536
 30
0.0
  0
VERTEX
  5
C2D
  8
LAYER_1
 62
   250
 10
-13.939
 20
101.0338
 30
0.0
  0
VERTEX
  5
C2E
  8
LAYER_1
 62
   250
 10
-13.9868
 20
101.006
 30
0.0
  0
VERTEX
  5
C2F
  8
LAYER_1
 62
   250
 10
-14.023
 20
100.9728
 30
0.0
  0
VERTEX
  5
C30
  8
LAYER_1
 62
   250
 10
-14.0488
 20
100.937
 30
0.0
  0
VERTEX
  5
C31
  8
LAYER_1
 62
   250
 10
-14.0642
 20
100.8985
 30
0.0
  0
VERTEX
  5
C32
  8
LAYER_1
 62
   250
 10
-14.0694
 20
100.8573
 30
0.0
  0
VERTEX
  5
C33
  8
LAYER_1
 62
   250
 10
-14.035
 20
100.7594
 30
0.0
  0
VERTEX
  5
C34
  8
LAYER_1
 62
   250
 10
-13.9281
 20
100.6847
 30
0.0
  0
VERTEX
  5
C35
  8
LAYER_1
 62
   250
 10
-13.6815
 20
100.6138
 30
0.0
  0
VERTEX
  5
C36
  8
LAYER_1
 62
   250
 10
-13.2688
 20
100.4842
 30
0.0
  0
VERTEX
  5
C37
  8
LAYER_1
 62
   250
 10
-13.164
 20
100.4224
 30
0.0
  0
VERTEX
  5
C38
  8
LAYER_1
 62
   250
 10
-13.0846
 20
100.3376
 30
0.0
  0
VERTEX
  5
C39
  8
LAYER_1
 62
   250
 10
-13.0346
 20
100.23
 30
0.0
  0
VERTEX
  5
C3A
  8
LAYER_1
 62
   250
 10
-13.0179
 20
100.099
 30
0.0
  0
VERTEX
  5
C3B
  8
LAYER_1
 62
   250
 10
-13.0231
 20
100.0302
 30
0.0
  0
VERTEX
  5
C3C
  8
LAYER_1
 62
   250
 10
-13.0384
 20
99.9635
 30
0.0
  0
VERTEX
  5
C3D
  8
LAYER_1
 62
   250
 10
-13.0639
 20
99.8988
 30
0.0
  0
VERTEX
  5
C3E
  8
LAYER_1
 62
   250
 10
-13.0994
 20
99.836
 30
0.0
  0
VERTEX
  5
C3F
  8
LAYER_1
 62
   250
 10
-13.1447
 20
99.7779
 30
0.0
  0
VERTEX
  5
C40
  8
LAYER_1
 62
   250
 10
-13.199
 20
99.7268
 30
0.0
  0
VERTEX
  5
C41
  8
LAYER_1
 62
   250
 10
-13.2622
 20
99.6827
 30
0.0
  0
VERTEX
  5
C42
  8
LAYER_1
 62
   250
 10
-13.3344
 20
99.6455
 30
0.0
  0
VERTEX
  5
C43
  8
LAYER_1
 62
   250
 10
-13.4978
 20
99.595
 30
0.0
  0
VERTEX
  5
C44
  8
LAYER_1
 62
   250
 10
-13.6815
 20
99.5783
 30
0.0
  0
VERTEX
  5
C45
  8
LAYER_1
 62
   250
 10
-13.8326
 20
99.5866
 30
0.0
  0
VERTEX
  5
C46
  8
LAYER_1
 62
   250
 10
-13.9645
 20
99.6116
 30
0.0
  0
VERTEX
  5
C47
  8
LAYER_1
 62
   250
 10
-14.0773
 20
99.6533
 30
0.0
  0
VERTEX
  5
C48
  8
LAYER_1
 62
   250
 10
-14.171
 20
99.7116
 30
0.0
  0
VERTEX
  5
C49
  8
LAYER_1
 62
   250
 10
-14.2475
 20
99.7863
 30
0.0
  0
VERTEX
  5
C4A
  8
LAYER_1
 62
   250
 10
-14.3087
 20
99.8771
 30
0.0
  0
VERTEX
  5
C4B
  8
LAYER_1
 62
   250
 10
-14.3546
 20
99.984
 30
0.0
  0
VERTEX
  5
C4C
  8
LAYER_1
 62
   250
 10
-14.3853
 20
100.1069
 30
0.0
  0
SEQEND
  5
C4D
  8
LAYER_1
 62
   250
  0
POLYLINE
  5
7D
  8
LAYER_1
 62
   250
 66
     1
 10
0.0
 20
0.0
 30
0.0
 70
     1
  0
VERTEX
  5
C4E
  8
LAYER_1
 62
   250
 10
-12.6543
 20
98.9845
 30
0.0
  0
VERTEX
  5
C4F
  8
LAYER_1
 62
   250
 10
-12.6543
 20
101.2615
 30
0.0
  0
VERTEX
  5
C50
  8
LAYER_1
 62
   250
 10
-12.4003
 20
101.2615
 30
0.0
  0
VERTEX
  5
C51
  8
LAYER_1
 62
   250
 10
-12.4003
 20
101.0478
 30
0.0
  0
VERTEX
  5
C52
  8
LAYER_1
 62
   250
 10
-12.3047
 20
101.1576
 30
0.0
  0
VERTEX
  5
C53
  8
LAYER_1
 62
   250
 10
-12.1971
 20
101.2361
 30
0.0
  0
VERTEX
  5
C54
  8
LAYER_1
 62
   250
 10
-12.0722
 20
101.2833
 30
0.0
  0
VERTEX
  5
C55
  8
LAYER_1
 62
   250
 10
-11.923
 20
101.2991
 30
0.0
  0
VERTEX
  5
C56
  8
LAYER_1
 62
   250
 10
-11.8206
 20
101.2923
 30
0.0
  0
VERTEX
  5
C57
  8
LAYER_1
 62
   250
 10
-11.7246
 20
101.2719
 30
0.0
  0
VERTEX
  5
C58
  8
LAYER_1
 62
   250
 10
-11.6347
 20
101.2379
 30
0.0
  0
VERTEX
  5
C59
  8
LAYER_1
 62
   250
 10
-11.551
 20
101.1906
 30
0.0
  0
VERTEX
  5
C5A
  8
LAYER_1
 62
   250
 10
-11.4751
 20
101.1307
 30
0.0
  0
VERTEX
  5
C5B
  8
LAYER_1
 62
   250
 10
-11.4093
 20
101.0596
 30
0.0
  0
VERTEX
  5
C5C
  8
LAYER_1
 62
   250
 10
-11.3535
 20
100.9775
 30
0.0
  0
VERTEX
  5
C5D
  8
LAYER_1
 62
   250
 10
-11.3076
 20
100.8842
 30
0.0
  0
VERTEX
  5
C5E
  8
LAYER_1
 62
   250
 10
-11.2715
 20
100.783
 30
0.0
  0
VERTEX
  5
C5F
  8
LAYER_1
 62
   250
 10
-11.2457
 20
100.6771
 30
0.0
  0
VERTEX
  5
C60
  8
LAYER_1
 62
   250
 10
-11.2303
 20
100.5664
 30
0.0
  0
VERTEX
  5
C61
  8
LAYER_1
 62
   250
 10
-11.2251
 20
100.4509
 30
0.0
  0
VERTEX
  5
C62
  8
LAYER_1
 62
   250
 10
-11.2308
 20
100.3278
 30
0.0
  0
VERTEX
  5
C63
  8
LAYER_1
 62
   250
 10
-11.2478
 20
100.2108
 30
0.0
  0
VERTEX
  5
C64
  8
LAYER_1
 62
   250
 10
-11.2762
 20
100.1002
 30
0.0
  0
VERTEX
  5
C65
  8
LAYER_1
 62
   250
 10
-11.3161
 20
99.9958
 30
0.0
  0
VERTEX
  5
C66
  8
LAYER_1
 62
   250
 10
-11.3665
 20
99.9005
 30
0.0
  0
VERTEX
  5
C67
  8
LAYER_1
 62
   250
 10
-11.4272
 20
99.8171
 30
0.0
  0
VERTEX
  5
C68
  8
LAYER_1
 62
   250
 10
-11.4983
 20
99.7455
 30
0.0
  0
VERTEX
  5
C69
  8
LAYER_1
 62
   250
 10
-11.5796
 20
99.6857
 30
0.0
  0
VERTEX
  5
C6A
  8
LAYER_1
 62
   250
 10
-11.6672
 20
99.6388
 30
0.0
  0
VERTEX
  5
C6B
  8
LAYER_1
 62
   250
 10
-11.757
 20
99.6052
 30
0.0
  0
VERTEX
  5
C6C
  8
LAYER_1
 62
   250
 10
-11.849
 20
99.585
 30
0.0
  0
VERTEX
  5
C6D
  8
LAYER_1
 62
   250
 10
-11.9431
 20
99.5783
 30
0.0
  0
VERTEX
  5
C6E
  8
LAYER_1
 62
   250
 10
-12.0755
 20
99.593
 30
0.0
  0
VERTEX
  5
C6F
  8
LAYER_1
 62
   250
 10
-12.1934
 20
99.637
 30
0.0
  0
VERTEX
  5
C70
  8
LAYER_1
 62
   250
 10
-12.3755
 20
99.7857
 30
0.0
  0
VERTEX
  5
C71
  8
LAYER_1
 62
   250
 10
-12.3755
 20
98.9845
 30
0.0
  0
VERTEX
  5
C72
  8
LAYER_1
 62
   250
 10
-12.6543
 20
98.9845
 30
0.0
  0
SEQEND
  5
C73
  8
LAYER_1
 62
   250
  0
POLYLINE
  5
7E
  8
LAYER_1
 62
   250
 66
     1
 10
0.0
 20
0.0
 30
0.0
 70
     1
  0
VERTEX
  5
C74
  8
LAYER_1
 62
   250
 10
-12.4019
 20
100.4292
 30
0.0
  0
VERTEX
  5
C75
  8
LAYER_1
 62
   250
 10
-12.3939
 20
100.2808
 30
0.0
  0
VERTEX
  5
C76
  8
LAYER_1
 62
   250
 10
-12.3698
 20
100.153
 30
0.0
  0
VERTEX
  5
C77
  8
LAYER_1
 62
   250
 10
-12.3296
 20
100.0458
 30
0.0
  0
VERTEX
  5
C78
  8
LAYER_1
 62
   250
 10
-12.2733
 20
99.9593
 30
0.0
  0
VERTEX
  5
C79
  8
LAYER_1
 62
   250
 10
-12.2056
 20
99.8929
 30
0.0
  0
VERTEX
  5
C7A
  8
LAYER_1
 62
   250
 10
-12.131
 20
99.8454
 30
0.0
  0
VERTEX
  5
C7B
  8
LAYER_1
 62
   250
 10
-12.0497
 20
99.8169
 30
0.0
  0
VERTEX
  5
C7C
  8
LAYER_1
 62
   250
 10
-11.9617
 20
99.8074
 30
0.0
  0
VERTEX
  5
C7D
  8
LAYER_1
 62
   250
 10
-11.8721
 20
99.8172
 30
0.0
  0
VERTEX
  5
C7E
  8
LAYER_1
 62
   250
 10
-11.7891
 20
99.8468
 30
0.0
  0
VERTEX
  5
C7F
  8
LAYER_1
 62
   250
 10
-11.7128
 20
99.896
 30
0.0
  0
VERTEX
  5
C80
  8
LAYER_1
 62
   250
 10
-11.6431
 20
99.9651
 30
0.0
  0
VERTEX
  5
C81
  8
LAYER_1
 62
   250
 10
-11.5851
 20
100.0545
 30
0.0
  0
VERTEX
  5
C82
  8
LAYER_1
 62
   250
 10
-11.5436
 20
100.1655
 30
0.0
  0
VERTEX
  5
C83
  8
LAYER_1
 62
   250
 10
-11.5186
 20
100.2981
 30
0.0
  0
VERTEX
  5
C84
  8
LAYER_1
 62
   250
 10
-11.5103
 20
100.4524
 30
0.0
  0
VERTEX
  5
C85
  8
LAYER_1
 62
   250
 10
-11.5184
 20
100.6
 30
0.0
  0
VERTEX
  5
C86
  8
LAYER_1
 62
   250
 10
-11.5428
 20
100.7277
 30
0.0
  0
VERTEX
  5
C87
  8
LAYER_1
 62
   250
 10
-11.5833
 20
100.8356
 30
0.0
  0
VERTEX
  5
C88
  8
LAYER_1
 62
   250
 10
-11.6399
 20
100.9239
 30
0.0
  0
VERTEX
  5
C89
  8
LAYER_1
 62
   250
 10
-11.7078
 20
100.9924
 30
0.0
  0
VERTEX
  5
C8A
  8
LAYER_1
 62
   250
 10
-11.782
 20
101.0414
 30
0.0
  0
VERTEX
  5
C8B
  8
LAYER_1
 62
   250
 10
-11.8624
 20
101.0708
 30
0.0
  0
VERTEX
  5
C8C
  8
LAYER_1
 62
   250
 10
-11.949
 20
101.0806
 30
0.0
  0
VERTEX
  5
C8D
  8
LAYER_1
 62
   250
 10
-12.0357
 20
101.0702
 30
0.0
  0
VERTEX
  5
C8E
  8
LAYER_1
 62
   250
 10
-12.1172
 20
101.0389
 30
0.0
  0
VERTEX
  5
C8F
  8
LAYER_1
 62
   250
 10
-12.1936
 20
100.9868
 30
0.0
  0
VERTEX
  5
C90
  8
LAYER_1
 62
   250
 10
-12.2649
 20
100.9139
 30
0.0
  0
VERTEX
  5
C91
  8
LAYER_1
 62
   250
 10
-12.3249
 20
100.8211
 30
0.0
  0
VERTEX
  5
C92
  8
LAYER_1
 62
   250
 10
-12.3677
 20
100.7092
 30
0.0
  0
VERTEX
  5
C93
  8
LAYER_1
 62
   250
 10
-12.3934
 20
100.5786
 30
0.0
  0
VERTEX
  5
C94
  8
LAYER_1
 62
   250
 10
-12.4019
 20
100.4292
 30
0.0
  0
SEQEND
  5
C95
  8
LAYER_1
 62
   250
  0
POLYLINE
  5
7F
  8
LAYER_1
 62
   250
 66
     1
 10
0.0
 20
0.0
 30
0.0
 70
     1
  0
VERTEX
  5
C96
  8
LAYER_1
 62
   250
 10
-10.961
 20
100.4387
 30
0.0
  0
VERTEX
  5
C97
  8
LAYER_1
 62
   250
 10
-10.9451
 20
100.6525
 30
0.0
  0
VERTEX
  5
C98
  8
LAYER_1
 62
   250
 10
-10.8974
 20
100.8367
 30
0.0
  0
VERTEX
  5
C99
  8
LAYER_1
 62
   250
 10
-10.8616
 20
100.9176
 30
0.0
  0
VERTEX
  5
C9A
  8
LAYER_1
 62
   250
 10
-10.8179
 20
100.9912
 30
0.0
  0
VERTEX
  5
C9B
  8
LAYER_1
 62
   250
 10
-10.7662
 20
101.0573
 30
0.0
  0
VERTEX
  5
C9C
  8
LAYER_1
 62
   250
 10
-10.7065
 20
101.116
 30
0.0
  0
VERTEX
  5
C9D
  8
LAYER_1
 62
   250
 10
-10.5947
 20
101.196
 30
0.0
  0
VERTEX
  5
C9E
  8
LAYER_1
 62
   250
 10
-10.4711
 20
101.2532
 30
0.0
  0
VERTEX
  5
C9F
  8
LAYER_1
 62
   250
 10
-10.3359
 20
101.2876
 30
0.0
  0
VERTEX
  5
CA0
  8
LAYER_1
 62
   250
 10
-10.1889
 20
101.2991
 30
0.0
  0
VERTEX
  5
CA1
  8
LAYER_1
 62
   250
 10
-10.0268
 20
101.2852
 30
0.0
  0
VERTEX
  5
CA2
  8
LAYER_1
 62
   250
 10
-9.8802
 20
101.2435
 30
0.0
  0
VERTEX
  5
CA3
  8
LAYER_1
 62
   250
 10
-9.7492
 20
101.1738
 30
0.0
  0
VERTEX
  5
CA4
  8
LAYER_1
 62
   250
 10
-9.6338
 20
101.0763
 30
0.0
  0
VERTEX
  5
CA5
  8
LAYER_1
 62
   250
 10
-9.5395
 20
100.9546
 30
0.0
  0
VERTEX
  5
CA6
  8
LAYER_1
 62
   250
 10
-9.4722
 20
100.8116
 30
0.0
  0
VERTEX
  5
CA7
  8
LAYER_1
 62
   250
 10
-9.4319
 20
100.6474
 30
0.0
  0
VERTEX
  5
CA8
  8
LAYER_1
 62
   250
 10
-9.4185
 20
100.462
 30
0.0
  0
VERTEX
  5
CA9
  8
LAYER_1
 62
   250
 10
-9.4244
 20
100.3114
 30
0.0
  0
VERTEX
  5
CAA
  8
LAYER_1
 62
   250
 10
-9.4423
 20
100.1778
 30
0.0
  0
VERTEX
  5
CAB
  8
LAYER_1
 62
   250
 10
-9.472
 20
100.0613
 30
0.0
  0
VERTEX
  5
CAC
  8
LAYER_1
 62
   250
 10
-9.5137
 20
99.9619
 30
0.0
  0
VERTEX
  5
CAD
  8
LAYER_1
 62
   250
 10
-9.5668
 20
99.8758
 30
0.0
  0
VERTEX
  5
CAE
  8
LAYER_1
 62
   250
 10
-9.6307
 20
99.7999
 30
0.0
  0
VERTEX
  5
CAF
  8
LAYER_1
 62
   250
 10
-9.7055
 20
99.7343
 30
0.0
  0
VERTEX
  5
CB0
  8
LAYER_1
 62
   250
 10
-9.791
 20
99.6788
 30
0.0
  0
VERTEX
  5
CB1
  8
LAYER_1
 62
   250
 10
-9.8843
 20
99.6347
 30
0.0
  0
VERTEX
  5
CB2
  8
LAYER_1
 62
   250
 10
-9.9816
 20
99.6034
 30
0.0
  0
VERTEX
  5
CB3
  8
LAYER_1
 62
   250
 10
-10.0831
 20
99.5846
 30
0.0
  0
VERTEX
  5
CB4
  8
LAYER_1
 62
   250
 10
-10.1889
 20
99.5783
 30
0.0
  0
VERTEX
  5
CB5
  8
LAYER_1
 62
   250
 10
-10.3533
 20
99.5921
 30
0.0
  0
VERTEX
  5
CB6
  8
LAYER_1
 62
   250
 10
-10.5013
 20
99.6336
 30
0.0
  0
VERTEX
  5
CB7
  8
LAYER_1
 62
   250
 10
-10.6327
 20
99.7028
 30
0.0
  0
VERTEX
  5
CB8
  8
LAYER_1
 62
   250
 10
-10.7477
 20
99.8
 30
0.0
  0
VERTEX
  5
CB9
  8
LAYER_1
 62
   250
 10
-10.8411
 20
99.9229
 30
0.0
  0
VERTEX
  5
CBA
  8
LAYER_1
 62
   250
 10
-10.9078
 20
100.0703
 30
0.0
  0
VERTEX
  5
CBB
  8
LAYER_1
 62
   250
 10
-10.9477
 20
100.2422
 30
0.0
  0
VERTEX
  5
CBC
  8
LAYER_1
 62
   250
 10
-10.961
 20
100.4387
 30
0.0
  0
SEQEND
  5
CBD
  8
LAYER_1
 62
   250
  0
POLYLINE
  5
80
  8
LAYER_1
 62
   250
 66
     1
 10
0.0
 20
0.0
 30
0.0
 70
     1
  0
VERTEX
  5
CBE
  8
LAYER_1
 62
   250
 10
-10.6742
 20
100.4387
 30
0.0
  0
VERTEX
  5
CBF
  8
LAYER_1
 62
   250
 10
-10.6656
 20
100.2903
 30
0.0
  0
VERTEX
  5
CC0
  8
LAYER_1
 62
   250
 10
-10.6397
 20
100.162
 30
0.0
  0
VERTEX
  5
CC1
  8
LAYER_1
 62
   250
 10
-10.5965
 20
100.0536
 30
0.0
  0
VERTEX
  5
CC2
  8
LAYER_1
 62
   250
 10
-10.5361
 20
99.9651
 30
0.0
  0
VERTEX
  5
CC3
  8
LAYER_1
 62
   250
 10
-10.4626
 20
99.896
 30
0.0
  0
VERTEX
  5
CC4
  8
LAYER_1
 62
   250
 10
-10.3802
 20
99.8468
 30
0.0
  0
VERTEX
  5
CC5
  8
LAYER_1
 62
   250
 10
-10.2889
 20
99.8172
 30
0.0
  0
VERTEX
  5
CC6
  8
LAYER_1
 62
   250
 10
-10.1889
 20
99.8074
 30
0.0
  0
VERTEX
  5
CC7
  8
LAYER_1
 62
   250
 10
-10.0893
 20
99.8173
 30
0.0
  0
VERTEX
  5
CC8
  8
LAYER_1
 62
   250
 10
-9.9984
 20
99.847
 30
0.0
  0
VERTEX
  5
CC9
  8
LAYER_1
 62
   250
 10
-9.9163
 20
99.8965
 30
0.0
  0
VERTEX
  5
CCA
  8
LAYER_1
 62
   250
 10
-9.8429
 20
99.9656
 30
0.0
  0
VERTEX
  5
CCB
  8
LAYER_1
 62
   250
 10
-9.7828
 20
100.055
 30
0.0
  0
VERTEX
  5
CCC
  8
LAYER_1
 62
   250
 10
-9.7398
 20
100.1652
 30
0.0
  0
VERTEX
  5
CCD
  8
LAYER_1
 62
   250
 10
-9.7139
 20
100.2961
 30
0.0
  0
VERTEX
  5
CCE
  8
LAYER_1
 62
   250
 10
-9.7053
 20
100.4477
 30
0.0
  0
VERTEX
  5
CCF
  8
LAYER_1
 62
   250
 10
-9.7139
 20
100.5912
 30
0.0
  0
VERTEX
  5
CD0
  8
LAYER_1
 62
   250
 10
-9.7399
 20
100.7163
 30
0.0
  0
VERTEX
  5
CD1
  8
LAYER_1
 62
   250
 10
-9.7832
 20
100.8228
 30
0.0
  0
VERTEX
  5
CD2
  8
LAYER_1
 62
   250
 10
-9.8439
 20
100.9107
 30
0.0
  0
VERTEX
  5
CD3
  8
LAYER_1
 62
   250
 10
-9.9175
 20
100.9795
 30
0.0
  0
VERTEX
  5
CD4
  8
LAYER_1
 62
   250
 10
-9.9996
 20
101.0286
 30
0.0
  0
VERTEX
  5
CD5
  8
LAYER_1
 62
   250
 10
-10.09
 20
101.0581
 30
0.0
  0
VERTEX
  5
CD6
  8
LAYER_1
 62
   250
 10
-10.1889
 20
101.0679
 30
0.0
  0
VERTEX
  5
CD7
  8
LAYER_1
 62
   250
 10
-10.2889
 20
101.0581
 30
0.0
  0
VERTEX
  5
CD8
  8
LAYER_1
 62
   250
 10
-10.3802
 20
101.0287
 30
0.0
  0
VERTEX
  5
CD9
  8
LAYER_1
 62
   250
 10
-10.4626
 20
100.9797
 30
0.0
  0
VERTEX
  5
CDA
  8
LAYER_1
 62
   250
 10
-10.5361
 20
100.9112
 30
0.0
  0
VERTEX
  5
CDB
  8
LAYER_1
 62
   250
 10
-10.5965
 20
100.823
 30
0.0
  0
VERTEX
  5
CDC
  8
LAYER_1
 62
   250
 10
-10.6397
 20
100.7149
 30
0.0
  0
VERTEX
  5
CDD
  8
LAYER_1
 62
   250
 10
-10.6656
 20
100.5867
 30
0.0
  0
VERTEX
  5
CDE
  8
LAYER_1
 62
   250
 10
-10.6742
 20
100.4387
 30
0.0
  0
SEQEND
  5
CDF
  8
LAYER_1
 62
   250
  0
POLYLINE
  5
81
  8
LAYER_1
 62
   250
 66
     1
 10
0.0
 20
0.0
 30
0.0
 70
     1
  0
VERTEX
  5
CE0
  8
LAYER_1
 62
   250
 10
-8.4501
 20
99.8651
 30
0.0
  0
VERTEX
  5
CE1
  8
LAYER_1
 62
   250
 10
-8.4099
 20
99.6185
 30
0.0
  0
VERTEX
  5
CE2
  8
LAYER_1
 62
   250
 10
-8.6205
 20
99.5936
 30
0.0
  0
VERTEX
  5
CE3
  8
LAYER_1
 62
   250
 10
-8.7556
 20
99.6056
 30
0.0
  0
VERTEX
  5
CE4
  8
LAYER_1
 62
   250
 10
-8.8565
 20
99.6418
 30
0.0
  0
VERTEX
  5
CE5
  8
LAYER_1
 62
   250
 10
-8.974
 20
99.7682
 30
0.0
  0
VERTEX
  5
CE6
  8
LAYER_1
 62
   250
 10
-9.0083
 20
100.0974
 30
0.0
  0
VERTEX
  5
CE7
  8
LAYER_1
 62
   250
 10
-9.0083
 20
101.0446
 30
0.0
  0
VERTEX
  5
CE8
  8
LAYER_1
 62
   250
 10
-9.2131
 20
101.0446
 30
0.0
  0
VERTEX
  5
CE9
  8
LAYER_1
 62
   250
 10
-9.2131
 20
101.2615
 30
0.0
  0
VERTEX
  5
CEA
  8
LAYER_1
 62
   250
 10
-9.0083
 20
101.2615
 30
0.0
  0
VERTEX
  5
CEB
  8
LAYER_1
 62
   250
 10
-9.0083
 20
101.6695
 30
0.0
  0
VERTEX
  5
CEC
  8
LAYER_1
 62
   250
 10
-8.7305
 20
101.8367
 30
0.0
  0
VERTEX
  5
CED
  8
LAYER_1
 62
   250
 10
-8.7305
 20
101.2615
 30
0.0
  0
VERTEX
  5
CEE
  8
LAYER_1
 62
   250
 10
-8.4501
 20
101.2615
 30
0.0
  0
VERTEX
  5
CEF
  8
LAYER_1
 62
   250
 10
-8.4501
 20
101.0446
 30
0.0
  0
VERTEX
  5
CF0
  8
LAYER_1
 62
   250
 10
-8.7305
 20
101.0446
 30
0.0
  0
VERTEX
  5
CF1
  8
LAYER_1
 62
   250
 10
-8.7305
 20
100.082
 30
0.0
  0
VERTEX
  5
CF2
  8
LAYER_1
 62
   250
 10
-8.7162
 20
99.9286
 30
0.0
  0
VERTEX
  5
CF3
  8
LAYER_1
 62
   250
 10
-8.6681
 20
99.8741
 30
0.0
  0
VERTEX
  5
CF4
  8
LAYER_1
 62
   250
 10
-8.5728
 20
99.854
 30
0.0
  0
VERTEX
  5
CF5
  8
LAYER_1
 62
   250
 10
-8.4501
 20
99.8651
 30
0.0
  0
SEQEND
  5
CF6
  8
LAYER_1
 62
   250
  0
POLYLINE
  5
82
  8
LAYER_1
 62
   250
 66
     1
 10
0.0
 20
0.0
 30
0.0
 70
     1
  0
VERTEX
  5
CF7
  8
LAYER_1
 62
   250
 10
-8.0664
 20
99.6153
 30
0.0
  0
VERTEX
  5
CF8
  8
LAYER_1
 62
   250
 10
-8.0664
 20
99.9333
 30
0.0
  0
VERTEX
  5
CF9
  8
LAYER_1
 62
   250
 10
-7.7484
 20
99.9333
 30
0.0
  0
VERTEX
  5
CFA
  8
LAYER_1
 62
   250
 10
-7.7484
 20
99.6153
 30
0.0
  0
VERTEX
  5
CFB
  8
LAYER_1
 62
   250
 10
-8.0664
 20
99.6153
 30
0.0
  0
SEQEND
  5
CFC
  8
LAYER_1
 62
   250
  0
POLYLINE
  5
83
  8
LAYER_1
 62
   250
 66
     1
 10
0.0
 20
0.0
 30
0.0
 70
     1
  0
VERTEX
  5
CFD
  8
LAYER_1
 62
   250
 10
-6.1571
 20
100.2186
 30
0.0
  0
VERTEX
  5
CFE
  8
LAYER_1
 62
   250
 10
-5.883
 20
100.1826
 30
0.0
  0
VERTEX
  5
CFF
  8
LAYER_1
 62
   250
 10
-5.9141
 20
100.0486
 30
0.0
  0
VERTEX
  5
D00
  8
LAYER_1
 62
   250
 10
-5.9628
 20
99.9299
 30
0.0
  0
VERTEX
  5
D01
  8
LAYER_1
 62
   250
 10
-6.0292
 20
99.8265
 30
0.0
  0
VERTEX
  5
D02
  8
LAYER_1
 62
   250
 10
-6.1132
 20
99.7386
 30
0.0
  0
VERTEX
  5
D03
  8
LAYER_1
 62
   250
 10
-6.211
 20
99.6685
 30
0.0
  0
VERTEX
  5
D04
  8
LAYER_1
 62
   250
 10
-6.3195
 20
99.6184
 30
0.0
  0
VERTEX
  5
D05
  8
LAYER_1
 62
   250
 10
-6.4386
 20
99.5883
 30
0.0
  0
VERTEX
  5
D06
  8
LAYER_1
 62
   250
 10
-6.5683
 20
99.5783
 30
0.0
  0
VERTEX
  5
D07
  8
LAYER_1
 62
   250
 10
-6.7288
 20
99.5921
 30
0.0
  0
VERTEX
  5
D08
  8
LAYER_1
 62
   250
 10
-6.8729
 20
99.6334
 30
0.0
  0
VERTEX
  5
D09
  8
LAYER_1
 62
   250
 10
-7.0004
 20
99.7024
 30
0.0
  0
VERTEX
  5
D0A
  8
LAYER_1
 62
   250
 10
-7.1112
 20
99.7989
 30
0.0
  0
VERTEX
  5
D0B
  8
LAYER_1
 62
   250
 10
-7.2012
 20
99.9212
 30
0.0
  0
VERTEX
  5
D0C
  8
LAYER_1
 62
   250
 10
-7.2656
 20
100.0676
 30
0.0
  0
VERTEX
  5
D0D
  8
LAYER_1
 62
   250
 10
-7.3042
 20
100.238
 30
0.0
  0
VERTEX
  5
D0E
  8
LAYER_1
 62
   250
 10
-7.3171
 20
100.4323
 30
0.0
  0
VERTEX
  5
D0F
  8
LAYER_1
 62
   250
 10
-7.3115
 20
100.5615
 30
0.0
  0
VERTEX
  5
D10
  8
LAYER_1
 62
   250
 10
-7.2949
 20
100.6824
 30
0.0
  0
VERTEX
  5
D11
  8
LAYER_1
 62
   250
 10
-7.2673
 20
100.7949
 30
0.0
  0
VERTEX
  5
D12
  8
LAYER_1
 62
   250
 10
-7.2287
 20
100.8991
 30
0.0
  0
VERTEX
  5
D13
  8
LAYER_1
 62
   250
 10
-7.1786
 20
100.9928
 30
0.0
  0
VERTEX
  5
D14
  8
LAYER_1
 62
   250
 10
-7.117
 20
101.0741
 30
0.0
  0
VERTEX
  5
D15
  8
LAYER_1
 62
   250
 10
-7.044
 20
101.1428
 30
0.0
  0
VERTEX
  5
D16
  8
LAYER_1
 62
   250
 10
-6.9594
 20
101.1991
 30
0.0
  0
VERTEX
  5
D17
  8
LAYER_1
 62
   250
 10
-6.8672
 20
101.2429
 30
0.0
  0
VERTEX
  5
D18
  8
LAYER_1
 62
   250
 10
-6.771
 20
101.2741
 30
0.0
  0
VERTEX
  5
D19
  8
LAYER_1
 62
   250
 10
-6.6708
 20
101.2929
 30
0.0
  0
VERTEX
  5
D1A
  8
LAYER_1
 62
   250
 10
-6.5667
 20
101.2991
 30
0.0
  0
VERTEX
  5
D1B
  8
LAYER_1
 62
   250
 10
-6.4387
 20
101.2906
 30
0.0
  0
VERTEX
  5
D1C
  8
LAYER_1
 62
   250
 10
-6.3228
 20
101.265
 30
0.0
  0
VERTEX
  5
D1D
  8
LAYER_1
 62
   250
 10
-6.2192
 20
101.2225
 30
0.0
  0
VERTEX
  5
D1E
  8
LAYER_1
 62
   250
 10
-6.128
 20
101.1631
 30
0.0
  0
VERTEX
  5
D1F
  8
LAYER_1
 62
   250
 10
-6.0503
 20
101.0882
 30
0.0
  0
VERTEX
  5
D20
  8
LAYER_1
 62
   250
 10
-5.9879
 20
100.9991
 30
0.0
  0
VERTEX
  5
D21
  8
LAYER_1
 62
   250
 10
-5.9408
 20
100.8957
 30
0.0
  0
VERTEX
  5
D22
  8
LAYER_1
 62
   250
 10
-5.909
 20
100.7779
 30
0.0
  0
VERTEX
  5
D23
  8
LAYER_1
 62
   250
 10
-6.1804
 20
100.7361
 30
0.0
  0
VERTEX
  5
D24
  8
LAYER_1
 62
   250
 10
-6.2036
 20
100.8139
 30
0.0
  0
VERTEX
  5
D25
  8
LAYER_1
 62
   250
 10
-6.2341
 20
100.8814
 30
0.0
  0
VERTEX
  5
D26
  8
LAYER_1
 62
   250
 10
-6.2721
 20
100.9387
 30
0.0
  0
VERTEX
  5
D27
  8
LAYER_1
 62
   250
 10
-6.3175
 20
100.9858
 30
0.0
  0
VERTEX
  5
D28
  8
LAYER_1
 62
   250
 10
-6.3693
 20
101.0223
 30
0.0
  0
VERTEX
  5
D29
  8
LAYER_1
 62
   250
 10
-6.4262
 20
101.0485
 30
0.0
  0
VERTEX
  5
D2A
  8
LAYER_1
 62
   250
 10
-6.4883
 20
101.0642
 30
0.0
  0
VERTEX
  5
D2B
  8
LAYER_1
 62
   250
 10
-6.5556
 20
101.0695
 30
0.0
  0
VERTEX
  5
D2C
  8
LAYER_1
 62
   250
 10
-6.6562
 20
101.0601
 30
0.0
  0
VERTEX
  5
D2D
  8
LAYER_1
 62
   250
 10
-6.7469
 20
101.0317
 30
0.0
  0
VERTEX
  5
D2E
  8
LAYER_1
 62
   250
 10
-6.8277
 20
100.9844
 30
0.0
  0
VERTEX
  5
D2F
  8
LAYER_1
 62
   250
 10
-6.8985
 20
100.9181
 30
0.0
  0
VERTEX
  5
D30
  8
LAYER_1
 62
   250
 10
-6.9561
 20
100.8317
 30
0.0
  0
VERTEX
  5
D31
  8
LAYER_1
 62
   250
 10
-6.9973
 20
100.7233
 30
0.0
  0
VERTEX
  5
D32
  8
LAYER_1
 62
   250
 10
-7.0221
 20
100.5928
 30
0.0
  0
VERTEX
  5
D33
  8
LAYER_1
 62
   250
 10
-7.0303
 20
100.4403
 30
0.0
  0
VERTEX
  5
D34
  8
LAYER_1
 62
   250
 10
-7.0223
 20
100.2857
 30
0.0
  0
VERTEX
  5
D35
  8
LAYER_1
 62
   250
 10
-6.9985
 20
100.1537
 30
0.0
  0
VERTEX
  5
D36
  8
LAYER_1
 62
   250
 10
-6.9586
 20
100.0444
 30
0.0
  0
VERTEX
  5
D37
  8
LAYER_1
 62
   250
 10
-6.9027
 20
99.9577
 30
0.0
  0
VERTEX
  5
D38
  8
LAYER_1
 62
   250
 10
-6.8344
 20
99.892
 30
0.0
  0
VERTEX
  5
D39
  8
LAYER_1
 62
   250
 10
-6.7563
 20
99.8451
 30
0.0
  0
VERTEX
  5
D3A
  8
LAYER_1
 62
   250
 10
-6.6685
 20
99.8168
 30
0.0
  0
VERTEX
  5
D3B
  8
LAYER_1
 62
   250
 10
-6.5709
 20
99.8074
 30
0.0
  0
VERTEX
  5
D3C
  8
LAYER_1
 62
   250
 10
-6.4922
 20
99.8137
 30
0.0
  0
VERTEX
  5
D3D
  8
LAYER_1
 62
   250
 10
-6.4204
 20
99.8328
 30
0.0
  0
VERTEX
  5
D3E
  8
LAYER_1
 62
   250
 10
-6.3553
 20
99.8644
 30
0.0
  0
VERTEX
  5
D3F
  8
LAYER_1
 62
   250
 10
-6.2968
 20
99.9085
 30
0.0
  0
VERTEX
  5
D40
  8
LAYER_1
 62
   250
 10
-6.2467
 20
99.9657
 30
0.0
  0
VERTEX
  5
D41
  8
LAYER_1
 62
   250
 10
-6.2067
 20
100.0364
 30
0.0
  0
VERTEX
  5
D42
  8
LAYER_1
 62
   250
 10
-6.1769
 20
100.1207
 30
0.0
  0
VERTEX
  5
D43
  8
LAYER_1
 62
   250
 10
-6.1571
 20
100.2186
 30
0.0
  0
SEQEND
  5
D44
  8
LAYER_1
 62
   250
  0
POLYLINE
  5
84
  8
LAYER_1
 62
   250
 66
     1
 10
0.0
 20
0.0
 30
0.0
 70
     1
  0
VERTEX
  5
D45
  8
LAYER_1
 62
   250
 10
-5.7163
 20
100.4387
 30
0.0
  0
VERTEX
  5
D46
  8
LAYER_1
 62
   250
 10
-5.7004
 20
100.6525
 30
0.0
  0
VERTEX
  5
D47
  8
LAYER_1
 62
   250
 10
-5.6527
 20
100.8367
 30
0.0
  0
VERTEX
  5
D48
  8
LAYER_1
 62
   250
 10
-5.6169
 20
100.9176
 30
0.0
  0
VERTEX
  5
D49
  8
LAYER_1
 62
   250
 10
-5.5732
 20
100.9912
 30
0.0
  0
VERTEX
  5
D4A
  8
LAYER_1
 62
   250
 10
-5.5215
 20
101.0573
 30
0.0
  0
VERTEX
  5
D4B
  8
LAYER_1
 62
   250
 10
-5.4618
 20
101.116
 30
0.0
  0
VERTEX
  5
D4C
  8
LAYER_1
 62
   250
 10
-5.35
 20
101.196
 30
0.0
  0
VERTEX
  5
D4D
  8
LAYER_1
 62
   250
 10
-5.2264
 20
101.2532
 30
0.0
  0
VERTEX
  5
D4E
  8
LAYER_1
 62
   250
 10
-5.0912
 20
101.2876
 30
0.0
  0
VERTEX
  5
D4F
  8
LAYER_1
 62
   250
 10
-4.9442
 20
101.2991
 30
0.0
  0
VERTEX
  5
D50
  8
LAYER_1
 62
   250
 10
-4.7821
 20
101.2852
 30
0.0
  0
VERTEX
  5
D51
  8
LAYER_1
 62
   250
 10
-4.6355
 20
101.2435
 30
0.0
  0
VERTEX
  5
D52
  8
LAYER_1
 62
   250
 10
-4.5045
 20
101.1738
 30
0.0
  0
VERTEX
  5
D53
  8
LAYER_1
 62
   250
 10
-4.3891
 20
101.0763
 30
0.0
  0
VERTEX
  5
D54
  8
LAYER_1
 62
   250
 10
-4.2948
 20
100.9546
 30
0.0
  0
VERTEX
  5
D55
  8
LAYER_1
 62
   250
 10
-4.2275
 20
100.8116
 30
0.0
  0
VERTEX
  5
D56
  8
LAYER_1
 62
   250
 10
-4.1872
 20
100.6474
 30
0.0
  0
VERTEX
  5
D57
  8
LAYER_1
 62
   250
 10
-4.1738
 20
100.462
 30
0.0
  0
VERTEX
  5
D58
  8
LAYER_1
 62
   250
 10
-4.1797
 20
100.3114
 30
0.0
  0
VERTEX
  5
D59
  8
LAYER_1
 62
   250
 10
-4.1976
 20
100.1778
 30
0.0
  0
VERTEX
  5
D5A
  8
LAYER_1
 62
   250
 10
-4.2273
 20
100.0613
 30
0.0
  0
VERTEX
  5
D5B
  8
LAYER_1
 62
   250
 10
-4.269
 20
99.9619
 30
0.0
  0
VERTEX
  5
D5C
  8
LAYER_1
 62
   250
 10
-4.3221
 20
99.8758
 30
0.0
  0
VERTEX
  5
D5D
  8
LAYER_1
 62
   250
 10
-4.386
 20
99.7999
 30
0.0
  0
VERTEX
  5
D5E
  8
LAYER_1
 62
   250
 10
-4.4608
 20
99.7343
 30
0.0
  0
VERTEX
  5
D5F
  8
LAYER_1
 62
   250
 10
-4.5463
 20
99.6788
 30
0.0
  0
VERTEX
  5
D60
  8
LAYER_1
 62
   250
 10
-4.6396
 20
99.6347
 30
0.0
  0
VERTEX
  5
D61
  8
LAYER_1
 62
   250
 10
-4.7369
 20
99.6034
 30
0.0
  0
VERTEX
  5
D62
  8
LAYER_1
 62
   250
 10
-4.8384
 20
99.5846
 30
0.0
  0
VERTEX
  5
D63
  8
LAYER_1
 62
   250
 10
-4.9442
 20
99.5783
 30
0.0
  0
VERTEX
  5
D64
  8
LAYER_1
 62
   250
 10
-5.1086
 20
99.5921
 30
0.0
  0
VERTEX
  5
D65
  8
LAYER_1
 62
   250
 10
-5.2566
 20
99.6336
 30
0.0
  0
VERTEX
  5
D66
  8
LAYER_1
 62
   250
 10
-5.388
 20
99.7028
 30
0.0
  0
VERTEX
  5
D67
  8
LAYER_1
 62
   250
 10
-5.503
 20
99.8
 30
0.0
  0
VERTEX
  5
D68
  8
LAYER_1
 62
   250
 10
-5.5964
 20
99.9229
 30
0.0
  0
VERTEX
  5
D69
  8
LAYER_1
 62
   250
 10
-5.6631
 20
100.0703
 30
0.0
  0
VERTEX
  5
D6A
  8
LAYER_1
 62
   250
 10
-5.703
 20
100.2422
 30
0.0
  0
VERTEX
  5
D6B
  8
LAYER_1
 62
   250
 10
-5.7163
 20
100.4387
 30
0.0
  0
SEQEND
  5
D6C
  8
LAYER_1
 62
   250
  0
POLYLINE
  5
85
  8
LAYER_1
 62
   250
 66
     1
 10
0.0
 20
0.0
 30
0.0
 70
     1
  0
VERTEX
  5
D6D
  8
LAYER_1
 62
   250
 10
-5.4295
 20
100.4387
 30
0.0
  0
VERTEX
  5
D6E
  8
LAYER_1
 62
   250
 10
-5.4209
 20
100.2903
 30
0.0
  0
VERTEX
  5
D6F
  8
LAYER_1
 62
   250
 10
-5.395
 20
100.162
 30
0.0
  0
VERTEX
  5
D70
  8
LAYER_1
 62
   250
 10
-5.3518
 20
100.0536
 30
0.0
  0
VERTEX
  5
D71
  8
LAYER_1
 62
   250
 10
-5.2914
 20
99.9651
 30
0.0
  0
VERTEX
  5
D72
  8
LAYER_1
 62
   250
 10
-5.2179
 20
99.896
 30
0.0
  0
VERTEX
  5
D73
  8
LAYER_1
 62
   250
 10
-5.1355
 20
99.8468
 30
0.0
  0
VERTEX
  5
D74
  8
LAYER_1
 62
   250
 10
-5.0442
 20
99.8172
 30
0.0
  0
VERTEX
  5
D75
  8
LAYER_1
 62
   250
 10
-4.9442
 20
99.8074
 30
0.0
  0
VERTEX
  5
D76
  8
LAYER_1
 62
   250
 10
-4.8446
 20
99.8173
 30
0.0
  0
VERTEX
  5
D77
  8
LAYER_1
 62
   250
 10
-4.7537
 20
99.847
 30
0.0
  0
VERTEX
  5
D78
  8
LAYER_1
 62
   250
 10
-4.6716
 20
99.8965
 30
0.0
  0
VERTEX
  5
D79
  8
LAYER_1
 62
   250
 10
-4.5982
 20
99.9656
 30
0.0
  0
VERTEX
  5
D7A
  8
LAYER_1
 62
   250
 10
-4.5381
 20
100.055
 30
0.0
  0
VERTEX
  5
D7B
  8
LAYER_1
 62
   250
 10
-4.4951
 20
100.1652
 30
0.0
  0
VERTEX
  5
D7C
  8
LAYER_1
 62
   250
 10
-4.4692
 20
100.2961
 30
0.0
  0
VERTEX
  5
D7D
  8
LAYER_1
 62
   250
 10
-4.4606
 20
100.4477
 30
0.0
  0
VERTEX
  5
D7E
  8
LAYER_1
 62
   250
 10
-4.4692
 20
100.5912
 30
0.0
  0
VERTEX
  5
D7F
  8
LAYER_1
 62
   250
 10
-4.4952
 20
100.7163
 30
0.0
  0
VERTEX
  5
D80
  8
LAYER_1
 62
   250
 10
-4.5385
 20
100.8228
 30
0.0
  0
VERTEX
  5
D81
  8
LAYER_1
 62
   250
 10
-4.5992
 20
100.9107
 30
0.0
  0
VERTEX
  5
D82
  8
LAYER_1
 62
   250
 10
-4.6728
 20
100.9795
 30
0.0
  0
VERTEX
  5
D83
  8
LAYER_1
 62
   250
 10
-4.7549
 20
101.0286
 30
0.0
  0
VERTEX
  5
D84
  8
LAYER_1
 62
   250
 10
-4.8453
 20
101.0581
 30
0.0
  0
VERTEX
  5
D85
  8
LAYER_1
 62
   250
 10
-4.9442
 20
101.0679
 30
0.0
  0
VERTEX
  5
D86
  8
LAYER_1
 62
   250
 10
-5.0442
 20
101.0581
 30
0.0
  0
VERTEX
  5
D87
  8
LAYER_1
 62
   250
 10
-5.1355
 20
101.0287
 30
0.0
  0
VERTEX
  5
D88
  8
LAYER_1
 62
   250
 10
-5.2179
 20
100.9797
 30
0.0
  0
VERTEX
  5
D89
  8
LAYER_1
 62
   250
 10
-5.2914
 20
100.9112
 30
0.0
  0
VERTEX
  5
D8A
  8
LAYER_1
 62
   250
 10
-5.3518
 20
100.823
 30
0.0
  0
VERTEX
  5
D8B
  8
LAYER_1
 62
   250
 10
-5.395
 20
100.7149
 30
0.0
  0
VERTEX
  5
D8C
  8
LAYER_1
 62
   250
 10
-5.4209
 20
100.5867
 30
0.0
  0
VERTEX
  5
D8D
  8
LAYER_1
 62
   250
 10
-5.4295
 20
100.4387
 30
0.0
  0
SEQEND
  5
D8E
  8
LAYER_1
 62
   250
  0
POLYLINE
  5
86
  8
LAYER_1
 62
   250
 66
     1
 10
0.0
 20
0.0
 30
0.0
 70
     1
  0
VERTEX
  5
D8F
  8
LAYER_1
 62
   250
 10
-3.8144
 20
99.6153
 30
0.0
  0
VERTEX
  5
D90
  8
LAYER_1
 62
   250
 10
-3.8144
 20
101.2615
 30
0.0
  0
VERTEX
  5
D91
  8
LAYER_1
 62
   250
 10
-3.5652
 20
101.2615
 30
0.0
  0
VERTEX
  5
D92
  8
LAYER_1
 62
   250
 10
-3.5652
 20
101.0308
 30
0.0
  0
VERTEX
  5
D93
  8
LAYER_1
 62
   250
 10
-3.4748
 20
101.1398
 30
0.0
  0
VERTEX
  5
D94
  8
LAYER_1
 62
   250
 10
-3.3588
 20
101.225
 30
0.0
  0
VERTEX
  5
D95
  8
LAYER_1
 62
   250
 10
-3.2922
 20
101.2573
 30
0.0
  0
VERTEX
  5
D96
  8
LAYER_1
 62
   250
 10
-3.2212
 20
101.2805
 30
0.0
  0
VERTEX
  5
D97
  8
LAYER_1
 62
   250
 10
-3.1456
 20
101.2944
 30
0.0
  0
VERTEX
  5
D98
  8
LAYER_1
 62
   250
 10
-3.0657
 20
101.2991
 30
0.0
  0
VERTEX
  5
D99
  8
LAYER_1
 62
   250
 10
-2.9785
 20
101.2943
 30
0.0
  0
VERTEX
  5
D9A
  8
LAYER_1
 62
   250
 10
-2.8995
 20
101.2801
 30
0.0
  0
VERTEX
  5
D9B
  8
LAYER_1
 62
   250
 10
-2.8287
 20
101.2562
 30
0.0
  0
VERTEX
  5
D9C
  8
LAYER_1
 62
   250
 10
-2.7662
 20
101.2229
 30
0.0
  0
VERTEX
  5
D9D
  8
LAYER_1
 62
   250
 10
-2.7118
 20
101.1811
 30
0.0
  0
VERTEX
  5
D9E
  8
LAYER_1
 62
   250
 10
-2.6662
 20
101.1319
 30
0.0
  0
VERTEX
  5
D9F
  8
LAYER_1
 62
   250
 10
-2.6293
 20
101.0751
 30
0.0
  0
VERTEX
  5
DA0
  8
LAYER_1
 62
   250
 10
-2.6011
 20
101.0107
 30
0.0
  0
VERTEX
  5
DA1
  8
LAYER_1
 62
   250
 10
-2.4958
 20
101.1368
 30
0.0
  0
VERTEX
  5
DA2
  8
LAYER_1
 62
   250
 10
-2.376
 20
101.2269
 30
0.0
  0
VERTEX
  5
DA3
  8
LAYER_1
 62
   250
 10
-2.2416
 20
101.2811
 30
0.0
  0
VERTEX
  5
DA4
  8
LAYER_1
 62
   250
 10
-2.0925
 20
101.2991
 30
0.0
  0
VERTEX
  5
DA5
  8
LAYER_1
 62
   250
 10
-1.977
 20
101.2906
 30
0.0
  0
VERTEX
  5
DA6
  8
LAYER_1
 62
   250
 10
-1.8758
 20
101.265
 30
0.0
  0
VERTEX
  5
DA7
  8
LAYER_1
 62
   250
 10
-1.7887
 20
101.2225
 30
0.0
  0
VERTEX
  5
DA8
  8
LAYER_1
 62
   250
 10
-1.7158
 20
101.1631
 30
0.0
  0
VERTEX
  5
DA9
  8
LAYER_1
 62
   250
 10
-1.6581
 20
101.0861
 30
0.0
  0
VERTEX
  5
DAA
  8
LAYER_1
 62
   250
 10
-1.6169
 20
100.9909
 30
0.0
  0
VERTEX
  5
DAB
  8
LAYER_1
 62
   250
 10
-1.5922
 20
100.8774
 30
0.0
  0
VERTEX
  5
DAC
  8
LAYER_1
 62
   250
 10
-1.584
 20
100.7456
 30
0.0
  0
VERTEX
  5
DAD
  8
LAYER_1
 62
   250
 10
-1.584
 20
99.6153
 30
0.0
  0
VERTEX
  5
DAE
  8
LAYER_1
 62
   250
 10
-1.8613
 20
99.6153
 30
0.0
  0
VERTEX
  5
DAF
  8
LAYER_1
 62
   250
 10
-1.8613
 20
100.6525
 30
0.0
  0
VERTEX
  5
DB0
  8
LAYER_1
 62
   250
 10
-1.8883
 20
100.8938
 30
0.0
  0
VERTEX
  5
DB1
  8
LAYER_1
 62
   250
 10
-1.9867
 20
101.0123
 30
0.0
  0
VERTEX
  5
DB2
  8
LAYER_1
 62
   250
 10
-2.1545
 20
101.0573
 30
0.0
  0
VERTEX
  5
DB3
  8
LAYER_1
 62
   250
 10
-2.2376
 20
101.0501
 30
0.0
  0
VERTEX
  5
DB4
  8
LAYER_1
 62
   250
 10
-2.3133
 20
101.0283
 30
0.0
  0
VERTEX
  5
DB5
  8
LAYER_1
 62
   250
 10
-2.3817
 20
100.9921
 30
0.0
  0
VERTEX
  5
DB6
  8
LAYER_1
 62
   250
 10
-2.4428
 20
100.9414
 30
0.0
  0
VERTEX
  5
DB7
  8
LAYER_1
 62
   250
 10
-2.4929
 20
100.8751
 30
0.0
  0
VERTEX
  5
DB8
  8
LAYER_1
 62
   250
 10
-2.5288
 20
100.7915
 30
0.0
  0
VERTEX
  5
DB9
  8
LAYER_1
 62
   250
 10
-2.5505
 20
100.6904
 30
0.0
  0
VERTEX
  5
DBA
  8
LAYER_1
 62
   250
 10
-2.5577
 20
100.572
 30
0.0
  0
VERTEX
  5
DBB
  8
LAYER_1
 62
   250
 10
-2.5577
 20
99.6153
 30
0.0
  0
VERTEX
  5
DBC
  8
LAYER_1
 62
   250
 10
-2.8365
 20
99.6153
 30
0.0
  0
VERTEX
  5
DBD
  8
LAYER_1
 62
   250
 10
-2.8365
 20
100.6847
 30
0.0
  0
VERTEX
  5
DBE
  8
LAYER_1
 62
   250
 10
-2.8408
 20
100.7721
 30
0.0
  0
VERTEX
  5
DBF
  8
LAYER_1
 62
   250
 10
-2.8536
 20
100.8478
 30
0.0
  0
VERTEX
  5
DC0
  8
LAYER_1
 62
   250
 10
-2.8749
 20
100.9118
 30
0.0
  0
VERTEX
  5
DC1
  8
LAYER_1
 62
   250
 10
-2.9048
 20
100.9641
 30
0.0
  0
VERTEX
  5
DC2
  8
LAYER_1
 62
   250
 10
-2.9443
 20
101.0048
 30
0.0
  0
VERTEX
  5
DC3
  8
LAYER_1
 62
   250
 10
-2.9946
 20
101.034
 30
0.0
  0
VERTEX
  5
DC4
  8
LAYER_1
 62
   250
 10
-3.0559
 20
101.0515
 30
0.0
  0
VERTEX
  5
DC5
  8
LAYER_1
 62
   250
 10
-3.1281
 20
101.0573
 30
0.0
  0
VERTEX
  5
DC6
  8
LAYER_1
 62
   250
 10
-3.2412
 20
101.0417
 30
0.0
  0
VERTEX
  5
DC7
  8
LAYER_1
 62
   250
 10
-3.3456
 20
100.9948
 30
0.0
  0
VERTEX
  5
DC8
  8
LAYER_1
 62
   250
 10
-3.432
 20
100.9186
 30
0.0
  0
VERTEX
  5
DC9
  8
LAYER_1
 62
   250
 10
-3.4906
 20
100.8139
 30
0.0
  0
VERTEX
  5
DCA
  8
LAYER_1
 62
   250
 10
-3.5356
 20
100.4694
 30
0.0
  0
VERTEX
  5
DCB
  8
LAYER_1
 62
   250
 10
-3.5356
 20
99.6153
 30
0.0
  0
VERTEX
  5
DCC
  8
LAYER_1
 62
   250
 10
-3.8144
 20
99.6153
 30
0.0
  0
SEQEND
  5
DCD
  8
LAYER_1
 62
   250
  0
ENDSEC
  0
EOF
